Song name
# A B C D E F G H I J K L M N O P Q R S T U V W X Y Z

Jaguar Love - Jaguar Pirates tab

Intro

E----------------------------------------|
B----------------------------------------|
G-------11---------11---------11---------|
D--9----9-----9----9----9-----9----9-----|
A--7----7-----7----7----7-----7----7-----|
E--0----0-----0----0----0-----0----0-----|


E--------------------------------------------|
B--------------------------------------------|
G------------------2------2------2------2----|
D--X-X--3-3-3-4--4------4------4------4------|
A--X-X--3-3-3-4------------------------------|
E--X-X--1-1-1-2-------2------2------2--------|


E--------------------------------------------|
B--------------------7-------7-10------------|
G----6-------6-7-------7---------------------|
D------7-------------------------------------|
A--------------------------------------------|
E--5-------5-------7-------7-----------------|(Repeat riff twice)


Verse

E--------------------------------------------|
B--2----2-----2--2--2----7----7--------------|
G--2----2-----2--2--2----6----7--------------|
D--2----2-----2--2--2----7----7--------------|
A------------------------5-------------------|
E--2----2-----2--2--2---------7--------------|

Chorus

E--------------------------------------------|
B--------------------------------------------|
G----------------4444------------------------|
D------6666----------------------------------|
A--------------------------------------------|
E--4-4-------4-4-------4444-6666-7777-666----|


E----------------------------------------------|
B----------------------------------------------|
G------9999------8888--------------------------|
D----------------------------------------------|
A--7-7-------7-7------7777-9999-1010101010-----|<-------(Those are tens)
E----------------------------------------------|(Repeat until Vocal Break)


Vocal Break

E--------------------------------|
B--------------------------------|
G------2------2------2-------2---|
D----4------4------4-------4-----|
A--------------------------------|
E--2------2------2-------2-------|


E----------------------------------|
B-------------------7-------7-10---|
G----7-------6-7------7------------|
D------6---------------------------|
A----------------------------------|
E--5-------5------7-------7--------|(Repeat 2x)


Song Order:

Intro
Verse 1
Chorus
Vocal Break
Verse 2
Chorus
Outro


Visit Jaguar Love's Website at:

http://takebacktheradworld.com/
Tap to rate this tab
 
# A B C D E F G H I J K L M N O P Q R S T U V W X Y Z