Song name
# A B C D E F G H I J K L M N O P Q R S T U V W X Y Z

Jai Paul - Jasmine tab

Tuning: Half-Step Down (Eb,Ab,Db,Gb,Bb,eb)
Capo: 0


CHORD PATTERN THROUGHOUT SONG
e|-----------------------------------------------|
B|----5------------------------------------------|
G|----6---------------------4----2---------------|
D|----6---------------------4----2---------------|
A|----4---------------------2----0---------------|
E|-----------------------------------------------|

e|-----------------------------------------------|
B|-----------------------------------------------|
G|-----------------------------------------------|
D|-----6----4-----------4----7----6----9----6----|
A|-----6----4-----------4----7----6----9----6----|
E|-----4----2-----------2----5----4----7----4----|


SMALL RIFF IN PARTS OF SONG
e|---------------------------|---------------------------|
B|---------------------------|---------------------------|
G|---------------------------|---------------------------|
D|----------------------(x3)-|---------------------------|
A|---11-9-7-7-7--------------|---11-9-7-7-7----9h11------|
E|---------------9-7h9-------|---------------9-----------|


https://soundcloud.com/jaipaul
https://www.facebook.com/pages/Jai-Paul/178380002235640?fref=ts
Tap to rate this tab
 
# A B C D E F G H I J K L M N O P Q R S T U V W X Y Z