Song name
# A B C D E F G H I J K L M N O P Q R S T U V W X Y Z

Jaime Preciado - Believe You Me tab

This may not be 100% correct, but it's pretty close!
Figured it out by ear, so i hope you like it!

Add me on youtube for some covers and updates/ song requests:

http://www.youtube.com/user/CoreyyRaawrrry

CAPO 6

----------14-14-14-11----11-14-14-14--|
-11-11-11-------------11--------------|
--------------------------------------|
--------------------------------------|
--------------------------------------|
--------------------------------------|

------------9-----------------|
-9-9-9-11-9---9-11-9----------|
------------------------------|
------------------------------|
------------------------------|
------------------------------|

-----------7----------------------|
-7-7-7-9-7---7-9-7----------------|
----------------------------------|
----------------------------------|
----------------------------------|
----------------------------------|

------------9-----------------|
-9-9-9-11-9---9-11-9----------|
------------------------------|
------------------------------|
------------------------------|
------------------------------|

SECOND HALF OF INTRO:

----------14-14-14-11----11-14-14-14--|
-11-11-11-------------11--------------|
--------------------------------------|
--------------------------------------|
--------------------------------------|
--------------------------------------|

------------11-9--------------|
-9-9-9-11-9------11-9---------|
------------------------------|
------------------------------|
------------------------------|
------------------------------|

-----------7----------------------|
-7-7-7-9-7---7-9-7----------------|
----------------------------------|
----------------------------------|
----------------------------------|
----------------------------------|

-------------9-------------|
-9-9-9-11-9--9-------------|
-------------0-------------|
-------------0-------------|
---------------------------|
---------------------------|

Chords used (from low E to high E):

C Chord:  9-9-8-0-7-0

G Chord: 9-8-0-0-9-0 or 9  (I use my pinky to hammer on the 9th fret)

F Chord: 0-9-9-8-7-0

I dont know if the full names of the chords are correct because they are all sus chords 
with added notes.

LYRICS:
 C                                   G (H on & pull off)
once i wish i could be on the other side of this conversation
        F                             G (H&P)
id pay so much more attention to the details i forgot like...
 C                                G (H&P)
how easy it was to smile now i'm losing my concentration
           F
cause my thoughts aren't learning to fake it
              G
and i never said this was your fault but...

CHORUS:

      F            G          C
when you believe in me, then i'll believe in everybody else
 F     G             C                  F            
   G
i can see that this wont come easy, when you believe in me
 ~silence~
i'll believe

INSTRUMENTAL:
----------14-14-14-11----11-14-14-14--|
-11-11-11-------------11--------------|
--------------------------------------|
--------------------------------------|
--------------------------------------|
--------------------------------------|

----------14----14--14-----|
-11-11-11----11-----14-----|
--------------------0------|
---------------------------|
---------------------------|
---------------------------|

                   C                       G (H&P)
i just think that time has a crazy way of changing my interpretation
        F                                          G   (H&P)
on how things left off i hate it, i wish we could certainly debate it.
         C                                         G   (H&P)
if you think you're still the one who lives in my, i don't even think i'll say it
           F                              G           (H&P)
i'll just stick to the basics love, just stick to the basics...
     C ~hold~                              G ~Hold~
and we don't need to yell no more, we can sit alone and listen
          F ~hold~                     G ~hold~
we could have a lil drink and sip it, get a lil close and whisper...


      F            G          C
when you believe in me, then i'll believe in everybody else
 F     G             C                  F            
   G
i can see that this wont come easy, when you believe in me
          F            G
hell when i believe in me
i'll believe
 F                 G                               C
in everything i thought i knew, and every chance i could have used
            G                                    F
to help me save me from this f*cking mess i got into
                      G
suprise, suprise im alone
                    C    G
please carry me home, so i can say...


      C               G                    F                  
   G
that when the light escapes from here and all the sound it just disappear
         C               G                   F               G
is when i'll believe in all of this, cause what i want, its not what i get
                 C          G                F          G
is it cause i'm asking too much, oh god i'm asking too much

Cause you're too blind to see that.....

CHORUS until the end.
Tap to rate this tab
# A B C D E F G H I J K L M N O P Q R S T U V W X Y Z