Song name
# A B C D E F G H I J K L M N O P Q R S T U V W X Y Z

Jake Bugg - Country Song tab

Country Song - Jake Bugg

****************************************************************************
 This is not an accurate tab, mereley a version sounding similar.
 I noticed a lot of people asking about the picking and this is how I do it
****************************************************************************

Capo on 3

I play the whole thing 3 times, changing the lyrics of course :P

I tried to space the lyrics out as accurately as I could to help make sense of the timing.



 | 1 + 2 + 3 + 4 + | 1 + 2 + 3 + 4 + | 1 + 2 + 3 + 4 + | 1 + 2 + 3 + 4 + |
e|-----------------|-----------------|-----------------|-----------------|
B|-----------0-----|-----------0h1---|-----------1-----|-----------------|
G|-------0-------0-|-------0-------0-|-------0-------0-|-------0---0---0-|
D|-----0-------0---|-----0-------0---|-----2-------2---|-----2-----------|
A|-----------------|-----------------|-3-------3-------|-3-------2---0---|
E|-3-------3-------|-3-------3-------|-----------------|-----------------|

                                         Gunna sing you an' old country 

 | 1 + 2 + 3 + 4 + | 1 + 2 + 3 + 4 + | 1 + 2 + 3 + 4 + | 1 + 2 + 3 + 4 + |
e|-----------------|-----------------|-----------------|-----------------|
B|-----------0-----|-----------0-----|-----------0-----|-----------0-----|
G|-------0-------0-|-------0-------0-|-------0-------0-|-------0-------0-|
D|-----0-------0---|-----0-------0---|-----0-------0---|-----0-------0---|
A|-----------------|-----------------|-----------------|-----------------|
E|-3-------3-------|-3-------3-------|-3-------3-------|-3-------3-------|

   Song                      From the heart                      So I can

 | 1 + 2 + 3 + 4 + | 1 + 2 + 3 + 4 + | 1 + 2 + 3 + 4 + | 1 + 2 + 3 + 4 + |
e|-----------------|-----------------|-----------------|-----------------|
B|-----------1-----|-----------1-----|-----------0-----|-----------0-----|
G|-------0-------0-|-------0-------0-|-------0-------0-|-------0-------0-|
D|-----2-------2---|-----2-------2---|-----0-------0---|-----0-------0---|
A|-3-------3-------|-3-------3-------|-----------------|-----------------|
E|-----------------|-----------------|-3-------3-------|-3-------3-------|

   cry your name and call you when im sad 

 | 1 + 2 + 3 + 4 + | 1 + 2 + 3 + 4 + | 1 + 2 + 3 + 4 + | 1 + 2 + 3 + 4 + |
e|-----------2-----|-----------3p2---|-----------------|-----------------|
B|-------1-------1-|-------3-------3-|-----------0-----|-----------------|
G|-----2-------2---|-----2-------2---|-------0-------0-|-------0-----0---|
D|-0-------0-------|-0-------0-------|-----0-------0---|-----0---------0-|
A|-----------------|-----------------|-----------------|---------0h2-----|
E|-----------------|-----------------|-3-------3-------|-3---------------|

            Oh       when    you have  gone              and

 | 1 + 2 + 3 + 4 + | 1 + 2 + 3 + 4 + | 1 + 2 + 3 + 4 + | 1 + 2 + 3 + 4 + |
e|-----------------|-----------------|-----------2-----|-----------3p2---|
B|-----------1-----|-----------------|-------3-------3-|-------3-------3-|
G|-------0-------0-|-------0---0---0-|-----2-------2---|-----2-------2---|
D|-----2-------2---|-----2-----------|-0-------0-------|-0-------0-------|
A|-3-------3-------|-3-------2---0---|-----------------|-----------------|
E|-----------------|-----------------|-----------------|-----------------|

   run               so                far

 | 1 + 2 + 3 + 4 + | 1 + 2 + 3 + 4 + | 1 + 2 + 3 + 4 + | 1 + 2 + 3 + 4 + |
e|-----------------|-----------------|-----------------|-----------------|
B|-----------0-----|-----------0-----|-----------0-----|-----------0-----|
G|-------0-------0-|-------0-------0-|-------0-------0-|-------0-------0-|
D|-----0-------0---|-----0-------0---|-----2-------2---|-----2-------2---|
A|-----------------|-----------------|-----------------|-----------------|
E|-3-------3-------|-2-------2-------|-0-------0-------|-0-------0-------|

   From              me      in the    trees                         So

 | 1 + 2 + 3 + 4 + | 1 + 2 + 3 + 4 + | 1 + 2 + 3 + 4 + | 1 + 2 + 3 + 4 + |
e|-----------------|-----------------|-----------2-----|-----------3p2---|
B|-----------1-----|-----------------|-------3-------3-|-------3-------3-|
G|-------0-------0-|-------0---0---0-|-----2-------2---|-----2-------2---|
D|-----2-------2---|-----2-----------|-0-------0-------|-0-------0-------|
A|-3-------3-------|-3-------2---0---|-----------------|-----------------|
E|-----------------|-----------------|-----------------|-----------------|

   far

 | 1 + 2 + 3 + 4 + | 1 + 2 + 3 + 4 + |
e|-----------------|-----------------|
B|-----------0-----|-----------0-----|
G|-------0-------0-|-------0-------0-|   Repeat 3x
D|-----0-------0---|-----0-------0---|
A|-----------------|-----------------|
E|-3-------3-------|-3-------3-------|



**********************************************************
 After the 3rd repeat play this, gradually getting slower
**********************************************************

 | 1 + 2 + 3 + 4 + | 1 + 2 + 3 + 4 + | 1 + 2 + 3 + 4 + | 1 + 2 + 3 + 4 + |   |
e|-----------------|-----------------|-----------------|-----------------|-3-|
B|-----------0-----|-----------0h1---|-----------1-----|-----------------|-0-|
G|-------0-------0-|-------0-------0-|-------0-------0-|-------0---0---0-|-0-|
D|-----0-------0---|-----0-------0---|-----2-------2---|-----2-----------|-0-|
A|-----------------|-----------------|-3-------3-------|-3-------2---0---|-2-|
E|-3-------3-------|-3-------3-------|-----------------|-----------------|-3-|
Tap to rate this tab
# A B C D E F G H I J K L M N O P Q R S T U V W X Y Z