Song name
# A B C D E F G H I J K L M N O P Q R S T U V W X Y Z

Jake Bugg - Saffron tab

From this video http://www.youtube.com/watch?v=cDINJAB0KBY

Capo on 4th fret

Picking patterns for each chord

C: ---------3------   Fmaj7: -------------   G: -3------------|
    -3--------------          -3-----------      -------------|
    -----2-------2--          -----3-------      -----0-------|
    ---0-------0----          ---2---------      ---0---------|
    -------1-------1          -------1-----      -------0-----|
    ----------------          -------------      -------------|

Fill ---------     Am ---------3-------2-------1------ <-----| use your thumb
     -----2-0-        -0-------------------------------------|      for the last
     -2-0-----        -----3-------3-------0-------0---------|      bass note
     ---------        ---3-------3-------3-------3-----------|
     ---------        -------1-------1-------1-------1-------|
     ---------        ---------------------------------------|
     hold the C shape for this

E5   ---------      F -1-------|
     -2-------        ---------|
     -----0---        -----3---|
     ---0-----        ---2-----|
     -------0-        -------1-|
     ---------        ---------|


    C
 I don't mean to waste your time
    Fmaj7
 I hope you're doing fine
    G
 Oh come on, Saffron

    C
 And I hope you like this song
    Fmaj7
 What have I done wrong
    G
 Oh, I'm gone, Saffron

    C,  Fill

    Am
 Something different about that girl
    Am
 So im reeling out of this world
    Am
 I want her to be mine
    Am                       C
 And I hope your doing fine,Saffron
    C
 Saffron


    C
 Her beauty is beyond belief
    Fmaj7
 And I know I'm beneath
    G            C
 Your league, Saffron

     C,  Fill

     Am
 Something different about that girl
     Am
 So im reeling  out of this world
     Am
 I want her to be mine
     Am                        C
 And I hope your doing fine, Saffron,
     C
 Saffron

    C,E5,F,C,E5,F,G

     C
 I don't mean to waste your time
     C              Fmaj7
 I hope your doing fine
     G           C
 Now I'm gone, Saffron
Tap to rate this tab
# A B C D E F G H I J K L M N O P Q R S T U V W X Y Z