Song name
# A B C D E F G H I J K L M N O P Q R S T U V W X Y Z

Jake Bugg - Slumville Sunrise tab

Her's a stab at it.   The intro is repeated throughout the main verse altho it
does switch a little in the last section to chords.   Believew it or not, no capo. ;)

INTRO:
e|-----------------------------------------------------------------------------|
B|-----------------------------------------------------------------------------|
G|-----------------------------------------------------------------------------|
D|-----------------------------------------------------------------------------|
A|------2---0--------0-0---------------2---0-------0-0-------------------------|
E|---0-----------3---------3---0----0----------3-----------3---0---------------|

e|---------------------------------------------------------------------------|
B|---------------------------------------------------------------------------|
G|---------------------------------------------------------------------------|
D|---------------------------------------------------------------------------|
A|------2---0--------0-0---------------2--2/0-------0-0------------------- --|
E|---0-----------3---------3---0----0----------3-----------3---0-------------|

The wind is beating on my window. I haven't slept all night.
That drug just keeps on banging.
They must be buzzing in the mind like bees in the hive
Tell me when the morning arrives.

This place is just not for me I say it all the time.
My friends they just ignore me.
Tell me that Iím blind, waiting on your line for the Slumville Sunrise.

C             G         Am      Em
Slumville Sunrise.
       C               G         Am      Em
Nobody cares or looks twice.
      C            G                  Am                 Em
Shine away in the morning across this place where I was born in.
        C         G          Am              Em
Every roof, every flower illuminated by the dawning.

My face upon the concrete, the dirt is in my mouth.
I clench my fist in fear. I try to cry out loud.
Make the sound soft Ďcause they keep me down.
This place is just not for me
I see it a thousand times
My friends they just ignore me. Tell me that Iím blind.
Waiting on your line for the Slumville Sunrise.
C            G         Am     Em
Slumville Sunrise
        C             G      Am        Em
Nobody cares or looks twice.
      C             G                  Am               Em
Shine away in the morning across this place where I was born in.
       C            G           Am         Em
Every roof, every flower illuminated by the dawning.

(Guitar Solo)

This place is just not for me
I say it all the time.
My friends they just ignore me. Tell me that Iím blind.
Waiting on your line for the Slumville Sunrise.
C             G       Am    Em
Slumville Sunrise
       C              G         Am      Em
Nobody cares or looks twice.
       C            G                 Am               Em
Shine away in the morning across this place where I was born in.
        C          G            Am          Em
Every roof, every flower illuminated by the dawning.
        C          G            Am           Em
Every roof, every flower illuminated by the dawning.
Tap to rate this tab
# A B C D E F G H I J K L M N O P Q R S T U V W X Y Z