Song name
# A B C D E F G H I J K L M N O P Q R S T U V W X Y Z

Jake Bugg - Someone Told Me tab

Jake Bugg: Someone Told Me (Capo3)

Am 002210  Fm7 033210  C 032010  G 320003       

Intro:  Am  Fm7  C  G  (x2)

Verse:
  Am               Fm7              C                 G   
E| ---------------|----------------|-----------------|---3------3----|
A|--0--------0----|---3------3-----|--------3-3------|---------------|
D|-------2--------|------3---------|---0h2-----------|------0--------|
G|---------2------|--------2-------|--------------0--|--------0------|
B|--0h1-------0---|---1--------1---|---1-------1-----|---0-------0---|
E|----------------|----------------|-----------------|---------------|

(Pre-Chorus play G pattern twice)

Verse1:
Am     Fm7       C      G
Am I crazy or am I blind?  
Am       Fm7        C       G        Am  Fm7  C  G  
Someone told me Im out my mind, Ohhhhhh

Am       Fm7           C      G      
Someone told me a girl I liked 
Am       Fm7            C        G        Am  Fm7  C  G
Fell in love and all I did was cry, Ohhhhh

Chorus:
  Fm7 (x4)         C                         G
E|----------------|-------------------------|---3-------3----3-------3-----|
A|---3------3-----|---3------3---3-----3----|------------------------------|
D|------3---------| -----2-----------2------|-----0-------------0----------|
G|--------2-------|-------0-----------0-----|--------0-------------0-------|
B|---1--------1---|----1--------1--------1--|---0---------0-------------0--|
E|----------------| ---------------0--------|-----------------3------------|

Fm7                                 C    G         
Someone hold me, Im done with this ga__me

  Fm7 (x4)        C                         Am
E|---------------|-------------------------|---------------------------|
A|---3------3----|-3-------3----3--3-3-2---|--0-----0------0------0----|
D|-----3---------|----2--------------------|----2-------------2--------|
G|-------2-------|------0------------------|------2-------------2------|
B|---1--------1--|-1---------1-------------|-----------1---1---------1-|
E|---------------|--------------0----------|---------------------------|

Fm7                            C   Am      
Said Im sorry, but Im not to bla__me

  G
E| ---3-------3----3-------3---------3-------3-------3--------3------|
A| ------------------------------------------------------------------|
D| -----0-------------0----------------0----------------0------------|
G|--------0-------------0-----------------0-----------------0--------|
B| ---0---------0-------------0------0----------0----0-----------0---|
E| ----------------3-------------------------------------------------|
    
G                                                                         
What a shame                                          Ohhhhhh

Am  Fm7  C  G (x2)

Verse: 2
  Am              Fm7              C                G   
E|---------------|----------------|----------------|---3-----3-----|
A|--0--------0---|---3------3-----|--------3-3-----|---------------|
D|-------2-------|------3---------|---0h2----------|------0--------|
G|---------2-----|--------2-------|--------------0-|---------0-----|
B|--0h1-------0--|---1--------1---| ---1-------1---| ---0-------0--|
E|---------------|----------------|----------------|---------------|
(Pre-Chorus play G pattern twice)

Am        Fm7             C       G          
Tried to break from this lonely pain  
Am       Fm7         C     G       Am  Fm7  C  G
Someone told me Im just insane, Ohhhhhh

Am        Fm7     C      G         
Broke my heart when I knew 
Am      Fm7         C       G       Am  Fm7  C  G
That I could never be with you, Ohhhhhh 

Chorus:
  Fm7 (x4)         C                         G
E|----------------|-------------------------|---3-------3----3-------3-----|
A|---3------3-----|---3------3---3-----3----|------------------------------|
D|------3---------| -----2-----------2------|-----0-------------0----------|
G|--------2-------|-------0-----------0-----|--------0-------------0-------|
B|---1--------1---|----1--------1--------1--|---0---------0-------------0--|
E|----------------| ---------------0--------|-----------------3------------|

Fm7                      C   G       
Someone love me, but not today 
  
  Fm7 (x4)        C                         Am
E|---------------|-------------------------|---------------------------|
A|---3------3----|-3-------3----3--3-3-2---|--0-----0------0------0----|
D|-----3---------|----2--------------------|----2-------------2--------|
G|-------2-------|------0------------------|------2-------------2------|
B|---1--------1--|-1---------1-------------|-----------1---1---------1-|
E|---------------|--------------0----------|---------------------------|

Fm7                         C   Am      
Will you show me, Show me a way

  G
E| ---3-------3----3-------3---------3-------3-------3--------3------|
A| ------------------------------------------------------------------|
D| -----0-------------0----------------0----------------0------------|
G|--------0-------------0-----------------0-----------------0--------|
B| ---0---------0-------------0------0----------0----0-----------0---|
E| ----------------3-------------------------------------------------|

              G                 
how to love?                                          Ohhhhhh. 

Outro:
Am  Fm7  C  G  (x2) 

   Am               Fm7             C                 G                  
E| ---------------|----------------|-----------------|---3-----3-----|
A|--0--------0----|---3------3-----|--------3-3------|---------------|
D|-------2--------|------3---------|---0-h2----------|------0--------|
G|---------2------|--------2-------|---------------0-|---------0-----|
B|--0-h1------0---|---1--------1---|----1-------1----|---0-------0---|
E|----------------|----------------|-----------------|---------------|

Then play the G below 
  G 
E|---3-------3-----|
A|-----------------|
D|------0----------|
G|---------0-------|
B|--------------0--|
E|---3-------------|

Stay on G but play the last pattern (x3)

Single down strums:
Am       Fm7       C     G     (Pick string 1(e) 2(b) & 3(g) when on G)
Someone told me a girl I liked
Am      Fm7           C       G        Am
Fell in love and all did was cry, ohhhhhh

If this is slightly out on presentation sorry as i had to mess with it
to make it fit 
if you email me ill forward the word document if you want it. paulglascodine@gmail.com
Put the Capo where you see fit ive seen him use 2 and 3
I have a lesson on youtube if you search glazgow71
hope this helps no copyright infringements intended
this is my version made purely from listening to the song.
Tap to rate this tab
# A B C D E F G H I J K L M N O P Q R S T U V W X Y Z