Song name
# A B C D E F G H I J K L M N O P Q R S T U V W X Y Z

Jake Bugg - Slumville Sunrise tab

Verse:

Main Riff-
e)---------------------|
B)---------------------|
G)-----4-4---4-4-----4-|
D)-----2-2---2-2-----2-|
A)-----2-0---0-0-----2-|
E)-----0--b3----b3-0-0-|

Prechorus: (where the song starts to kick off, he uses a tremolo effect to make it sound 
cooler, but palm muting and fast strumming work just as well. Bend low G when he sings 
"tell me nevermind, waiting on your line, for the slumville sunrise.)

e)--------0--------|
B)--------2--------|
G)----4---2--------|
D)----2---2-x2-----|
A)----2---0--------|
E)----0--------b3/0|


Chorus: (one measure of strumming Em before it juts in)

Em      C
Slumville Sunrise
G       B7     Em        C     G    B7
  Where nobody cares or looks twice
      C            G
Shout away in the morning
            B7                 Em
Across this place where I was born in
         C             G
Every roof, every flower
          B7                 Em
Illuminate her by the morning





Sincerely hope that is correct, and I hope you enjoy. Such a great song.
Littleinsidegenius1@gmail.com
Tap to rate this tab
# A B C D E F G H I J K L M N O P Q R S T U V W X Y Z