Song name
# A B C D E F G H I J K L M N O P Q R S T U V W X Y Z

Jake Bugg - Country Song tab

Jake Bugg   Country Song (Capo3)

G      320003    C x32010    D7 xx0212    D xx0232  Em 022000
Gadd9  300003  Am7 302013 Cadd9 030010  Gm9 200003

Intro:
   G          Am7        Gadd9             G
E|-3------3---------------------------------3----------------3--------------|
A|---------------------0----0h2-----0---------------2----------------2------|
D|-----0---------2---------------0-----0-------0-------0--------0-------0---|
G|---0---0---0-----0-----------0--------0--------0--------0-------0-------0-|
B|---0-------0h1-----0-------------0---------0----------------0-------------|
E|----------------------------------------------------3----------------3----|
   G
E|-3-----------------3------------------|
A|----------2----------------2----------|
D|------0-------0--------0-----0------- |
G|--------0--------0-------0------0---- |
B|----0------0----------0-----0-------- |
E|---------------------------------(3)--| (Play Outro Only)

Verse: 1
  G                                  C
E|-3-----------------3------------------------------------------------------|
A|----------2----------------0---------3-------3--------3--------0----------|
D|------0-------0--------0------0---------2--------2---------2--------0-----|
G|--------0--------0-------0-------0--------0--------0---------0--------0---|
B|----0------0----------0-----0---------1--------1--------1--------1--------|
E|----------- --------------------------------------------------------------|
  Gonna sing you an old country song                              From the

   G                                D7                   D
E|-3-----------------3------------------------------------------------------|
A|----------2----------------0---------0-------0--------0--------0----------|
D|------0-------0--------0------0---------0--------0---------0--------0-----|
G|--------0--------0-------0-------0--------2--------0---------2--------0---|
B|----0------0----------0-----0---------1--------1--------3--------3--------|
E|--------------------------------------------------------------------------|
  Heart                      so I can cry your name and call you when Im

  G                                  C
E| 3-----------------3------------------------------------------------------|
A|----------2----------------0---------3-------3--------3--------3----------|
D|------0-------0--------0------0---------2--------2---------2--------2-----|
G|--------0--------0-------0-------0--------0--------0---------0--------0---|
B|----0------0----------0-----0---------1--------1--------1--------1--------|
E|--------------------------------------------------------------------------|
   sad                                        When      you      have

  D                                     G
E|----------------------------------------3--------------2------------------|
A|--0--------0--------0-------0-----------------2--------------0------------|
D|------0--------0--------0-------0---------0------0-------0-------0--------|
G|--------2--------2--------2-------2---------0------0------0--------0------|
B|----3--------3--------3-------3---------0------0-------0-------0----------|
E|--------------------------------------------------------------------------|
    Go_____________ne              and     run           so

  Em                                    C
E|--------------------------------------------------------------------------|
A|--2--------2--------2-------0---------3-------3-----3-------0-------------|
D|------2--------2--------2-------2---------2------2-------2-------2--------|
G|--------0--------0--------0-------0---------0------0-------0--------0-----|
B|----0--------0--------0-------0---------1------1------1-------1-----------|
E|----------- --------------------------------------------------------------|
   Far                       from      me                    in the

  D                                        G       (Intro repeat on G)
E|-------------------------------------------------|
A|--0--------0-----------------0--------0----------|
D|------0--------0--------0--------0---------------|
G|--------3--------3--------3--------3-------------|
B|----2--------2-----------------2--------2--------|
E|------------------- 0h2--------------------------|
  Trees                        so          far

Verse: 2
G                                                C
Walking down that old country lane
                  G              D7                     D                             G
Drops of rain call upon the ones who call you by your name
C                               D                  G         Gm9            Em
Will I see you _____again and please come on back home
        C                  D              G
To me ____so Im not all alone

Intro:

Verse: 3
G                       Gadd9          C     Cadd9           G
Gonna sing you an old country song  From the             heart
        D7              D             G
From the strings of this old rusty guitar

Intro:

The song picking repeats itself the rest of the songso when you get to G chord just 
repeat the intro and through to the next verses. Going into the last intro stop at the end 
of the second verse of tab (on D) and repeat intro to finish. its about 95% correct.
email me if you want a copy of the tab in word: paulglascodine@gmail.com


Jake Bugg  Country Song (Capo3)

G     320003    C x32010     D7 xx0212    D xx0232  Em 022000
Gadd9 300003  Am7 302013  Cadd9 030010  Gm9 200003

Intro:

Verse: 1
G                       Gadd9   C
Gonna sing you an old country song
Cadd9         G
From the heart
        Gadd9    D7                 D                 G    Gadd9
So I _can _______cry your name and call you when Im sad
C        Cm9       D             G          Gm9   Em
When you have ____go______ne and run _______so __far
     C    Cm9        D         G
From me ___in the trees ____so far

Intro:

Verse: 2
G                    Gadd9       C
Walking down that old country lane
Cadd9      G     Gadd9       D7                  D                G   Gadd9
Drops of rain ___call ________upon the ones who call you by your name
C          Cadd9      D                 G      Gm9         Em
 Will I see you _____ag_______ain and please come on back home
    C       Cm9      D           G
To me ____so Im _____not all alone

Intro:

Verse: 3
G                     Gadd9      C
Gonna sing you an old country song
Cadd9        G
From the heart
Gadd9           D7                  D          G
From the _______strings of this old rusty guitar

Outro:

Second version is just chords. There are some extra ones in there to
represent where you lift off the odd finger of a chord.
Tap to rate this tab
# A B C D E F G H I J K L M N O P Q R S T U V W X Y Z