Song name
# A B C D E F G H I J K L M N O P Q R S T U V W X Y Z

Jake Bugg - Man On The Moon chords

Highlighted       Show chord diagrams
-------------------------------------------------------------------------------
                                                     MAN ON THE MOON - JAKE BUGG
-------------------------------------------------------------------------------
Tabbed by: matthijsvrumpt               

Tuning: Standard

Another amazing song by Jake Bugg which is quite easy to play

CAPO 2

      Em                                        G                           Bm7
e|--------------------------------------------------------------------------------------|
B|----------------0------0-------------0------0------------0------0-----------0---------|
G|----------0--------0------------0-------0------------2------2-----------2-----2---2---|
D|------ 2----2--------2--------0---0-------0--------0---0------0-------0---0-----0-----|
A|----2----------------------2--------------------2------------------2------------------|
E|----0----------------------3--------------------0------------------0------------------|

Em             G                Bm7
Last night the moon watched the sea,
                Em
As he looked so sad,
               G           Bm7
His reflection told me the story,

      C*                                                                  Em
e|--------------------------------------------------------------------------------------|
B|----------------0------0-------------0------0------------0------0-----------0---------|
G|----------0--------0------------0-------0------------0------0-----------0-----0---0---|
D|------ 2----2--------2--------2---2-------2--------2---2------2-------2---2-----2-----|
A|----3----------------------3--------------------2------------------2------------------|
E|----0----------------------0--------------------0------------------0------------------|

              C       Em
Why he didn't speak a sound,
                 C          Em
And all to do is weep, come down.



Em         G               Bm7          
I tried to ask him what he needs,
                     Em
Moon light paints my face,
            G                   Bm7
And when he turned and looked to me,
   

               C*      Em         (strum this chorus)
Still we never speak a sound,                     
                 C*         Em
And all to do is weep, come down.



Em           G              Bm7
And when the up comes to an end,
           Em
And all is last,
              G             Bm7                    
The moon will lose his only friend,


               C*      Em         (strum this chorus)
Still we never speak a sound,                     
                 C*         Em
And all to do is weep, come down.


C*      Em               (strum this too)
No more words,
C*      Em
Lost in space,
C*          Em
It's on his face,
           C*
Man on the moon. 


--------------------------------------------------------------------------

Let me know if you've got any corrections on the tabs, chords or lyrics.
Tap to rate this tab
# A B C D E F G H I J K L M N O P Q R S T U V W X Y Z