Song name
# A B C D E F G H I J K L M N O P Q R S T U V W X Y Z

Jake Bugg - Broken tab

Hey,

I just posted a cover of this song on youtube so i want to post the tab also.

Watch my cover please ! :)

http://www.youtube.com/watch?v=MPTfll_qjLs

So , Capo 1

INTRO + VERSE

e ------------------0--------------------0--------------|
B -----------8----------------------8-------------------|
G ------0------0-------X2-------0-----0----X2-----------|
D ----9----------9------------9--------9----------------|
A -10-----10----------------9-----9---------------------|
E ------------------------------------------------------|

e --------------------0------------------------------------|
B ------------8-------------------------8------8-----------|
G -------10-----10-------X2---------0-----0-------X2-------|
D ----11-----------11-----------------0-----0--------------|
A -11------11--------------------9-------------------------|
E ----------------------------10---------------------------|

Chorus :


G
Down by the people if they let you breathe
Em                                  C
Don't give a damn if you still can't see
         D7
Still my heart beats, for you

I can't figure out the chorus sorry ...

During the second part of the verse he adds a little thing


e -------------------------------------------------------------|
B ----------10-----8----------------10----8--------------------|
G ------0------0-------X2-------0------0----X2-----------------|
D ----9----------9------------9---------9----------------------|
A -10-----10----------------9-----9----------------------------|
E -------------------------------------------------------------|

e ---------------------------------------------------------|
B -----------10-------8------------------8------8----------|
G -------10-----10-------X2---------0-----0-------X2-------|
D ----11-----------11-----------------0-----0--------------|
A -11------11--------------------9-------------------------|
E ----------------------------10---------------------------|

Last Chorus :

G
Run to the lobby where I saw you try
Em                                C
Don't give a damn for your reasons why
D7
Where so be it,
C                            D
down in the valley where the church bells cry
G                   C       G
I'll lead them over to your eyes.
G   Em C      G
Woah, I am one,
C     G
I am one.


Not really sure of the chorus, but I hope it help ... sorry for my English i'm french ..
Tap to rate this tab
# A B C D E F G H I J K L M N O P Q R S T U V W X Y Z