Song name
# A B C D E F G H I J K L M N O P Q R S T U V W X Y Z

Jake Bugg - What Doesnt Kill You tab

What Doesn't Kill You by Jake Bugg
From the album Shangri La

With regards to the intro, verse and bridge listen to the song to achieve the correct rhythm.

b - bend
r - release

Intro/Verse

E|-----------------------|
B|-----------------------|
G|-----------------------|
D|--6--5--3--------------|
A|--6--5--3--------------|
E|--4--3--1--------------|


Bridge (Chord Repeated)
  
E|-----------|
B|-----------|
G|--10-------|
D|--10-------|
A|--8--------|
E|-----------|


Chorus

E|-----------------------------------------|
B|-----------------------------------------|
G|------5----------------------------------|
D|--10--8-----10--9--10--9-10--9--10-9-10--|
A|--10--8------8--7--8---7--8--7--8--7--8--|
E|--8---6----------------------------------|


Solo

E|--------------------------------------------------------------------------|
B|-8b11r8-8b11r8-8-8b11-8b11b8-8b11b8-8-------------------------------------|
G|-------------------------------------10b12--------------------------------|
D|-------------------------------------------10--9--10--9-10--9--10-9-10--x2|
A|--------------------------------------------8--7--8---7--8--7--8--7--8----|
E|--------------------------------------------------------------------------|



(INTRO/VERSE RIFF)
Step out the door 2 AM yesterday
Me and my friend keeping the night aflame
And as were walking in the clear night blind
Two guys come up and take him out of sight

(BRIDGE RIFF)
All I know is one thing they hit him hard he doubles up
They takes his money and they run and all I can do is watch them go

(VERSE RIFF)
His hands are round his nose
His blood is on his clothes

(CHORUS RIFF)
What doesnt kill ya
What doesnt hurt
Sometimes you feel youre up against the world
What doesnt kill ya
What doesnt break
This life it seems
To bring you to your knees
You try you bleed then finally you breathe

(VERSE RIFF)
She was the dream that kept me up at night
I couldnt face the world without her eyes
I never knew it till she disappeared
My life would be a bunch of souvenirs

(BRIDGE RIFF)
All I know is what it is her heart she doubles up
She packs her bag and then she runs and all I can do is watch her go

(VERSE RIFF)
Ive lost all I own

(CHORUS RIFF)
What doesnt kill ya
What doesnt hurt
Sometimes you feel youre up against the world
What doesnt kill ya
What doesnt break
This life it seems
To bring you to your knees
You try you bleed then finally you breathe

(SOLO)

(CHORUS RIFF)
What doesnt kill ya
What doesnt hurt
Sometimes you feel youre up against the world
What doesnt kill ya
What doesnt break
This life it seems
To bring you to your knees
You try you bleed then finally you breathe  
Tap to rate this tab
# A B C D E F G H I J K L M N O P Q R S T U V W X Y Z