Song name
# A B C D E F G H I J K L M N O P Q R S T U V W X Y Z

Jake Bugg - Saffron tab

 JAKE BUGG- SAFFRON TAB

I would like to dedicate my first tab to Isi Magdiel, she's my best friend and she
loves this song, I love you my little bird :3

*****Capo on 5th*****
Do quickly this pick thing wile playing each chord....
1|----------|
2|----x-----|
3|--------x-|
4|------x---|
5|--x-------|
6|----------|


 C
I don't mean to waste your time
                     G7
I hope you're doing fine
                C
Oh, I'm gone, Saffron

C
And I hope you like this song,
                 G7
What have I done wrong,
              C
Oh, I'm gone, Saffron
---- C ---|-- Em -|-- ? --|--- Am ---|
1|-----------------------------------|
2|---1-------0-------0-------1-------|
3|-------0-------0-------2-------2---|
4|-----2-------2-------0-------2-----|
5|-3-------2-------2-------0---------|
6|-----------------------------------|

 Am
Something different about that girl,
 Em
So mean and out of this world,
 Am
I want her to be mine,
 Em                           C
And I hope you're doing fine, Saffron
Saffron

 C
Her beauty is beyond belief,
                 G7                  C
And I know I'm beneath your league, Saffron

---- C ---|-- Em -|-- ? --|--- Am ---|
1|-----------------------------------|
2|---1-------0-------0-------1-------|
3|-------0-------0-------2-------2---|
4|-----2-------2-------0-------2-----|
5|-3-------2-------2-------0---------|
6|-----------------------------------|

 Am
Something different about that girl,
 Em
So mean and out of this world
 Am
I want her to be mine
 Em                            C
And I hope you're doing fine, Saffron
Saffron
***slow down timing*****

 C
I don't mean to waste your time
                     G7
I hope you're doing fine
               C
Oh, I'm gone, Saffron
 ***** C  ******


-Hilda Georgina
any question just ask (:
Tap to rate this tab
 
# A B C D E F G H I J K L M N O P Q R S T U V W X Y Z