Song name
# A B C D E F G H I J K L M N O P Q R S T U V W X Y Z

Jake Bugg - What Doesnt Kill You tab

-------------------------------------------------------------------------------
WHAT DOESN'T KILL YOU - Jake Bugg
-------------------------------------------------------------------------------
Tabbed by: emishi

Tuning: Standart (EADGBe)

CAPO 1
------

(the other versions are okay, but I prefer to play it like this.
I use the capo at the first fret, mainly to get an F on the lowest string
while playing the 'staccato'-part of the chorus. sounds better in my opinion)

Verse

e|------------------|
B|------------------|
G|------------------|
D|-5-5--4-4--2------|
A|-5-5--4-4--2-(x8)-|
E|-3-3--2-2--0------|

Bridge

e|------------------|
B|------------------|
G|------------------|
D|-5------7---------|
A|-5-(x8)-7-(x8)----|
E|-3------5---------|

Chorus

e|------------------------------------------|
B|------------------------------------------|
G|-------------------------------7----------|
D|-9------7------9--7-9--7-9-7-9-7-9--------|
A|-9-(x8)-7-(x8)-7--7-7--7-7-7-7-7-7--------|
E|-7------5------0--0-0--0-0-0-0---0--------|


e|------------------------------------------|
B|------------------------------------------|
G|-------------------------------7----------|
D|-9------7------9--7-9--7-9-7-9-7-9--------|
A|-9-(x8)-7-(x8)-7--7-7--7-7-7-7-7-7-(x2)---|
E|-7------5------0--0-0--0-0-0-0---0--------|

Tap to rate this tab
# A B C D E F G H I J K L M N O P Q R S T U V W X Y Z