Song name
# A B C D E F G H I J K L M N O P Q R S T U V W X Y Z

Jake Coco - Id Give You The Moon tab

You can watch Jake Coco's Live version here: http://www.youtube.com/watch?v=8dmkADsX1Xo

Intro
|--------2^4-------5-----7-----2-^4^2^0-0---------2-----4-----5-----7------11-|
|--------0-----------------------------4-4/0-----0----------------------------|
|--------------4/6---6/8------------------------2---2/4---4/6---6/8---8/11----|
|----------------------------------------------2------------------------------|
|-7/0-----------------------------------------0-------------------------------|
|-----0------------------------0----------------------------------------------|

|-2^4^2^0---0-----------------2---------0-0--0---2^0---0-|
|-------0^4--------5---------0---------0-----0---0-----0-|
|--------------4/6----6/1---2---------8------8---2-----1-|
|--------------------------2---------9-------9---2-----2-|
|-------------------------0---------9--------9---0-----2-|
|-0------------------------------4/7--------7----------0-|

|-----2/4---2^4^2^0---4---2---2---5---4-|
|---0-----------------5---4---4---7---5-|
|---------------------------------------|
|---------------------------------------|
|---------------------------------------|
|-0-------0---------0---0---0---0---0---|

|-----2/4---2^4^2^0---4---2---2---5---4---7---11---12---<12>-|
|---0-----------------5---4---4---7---5---9---12---12---<12>-|
|------------------------------------------------------------|
|------------------------------------------------------------|
|------------------------------------------------------------|
|-0-------0---------0---0---0---0---0---0---0----0----0------|

Verse
|-----0-------0-------0-------0---|
|---0---0---0---0---0---0---0---0-|
|---------------------------------|
|---------------------------------|
|---------------------------------|
|-0-------4-------5-------7-------|

Prechorus
|-----0-------0-------0-------0-------0-------0-------0-----|
|---0---0---0---0---0---0---0---0---0---0---0---0---0---0---|
|-----------------------------------------------------------|
|-----------------------------------------------------------|
|-----------------------------------------------------------|
|-9-------7-------0-------0-------0-------4-------5-------7-|

Chorus
|-----0-------0-------0-------0---|
|---0---0---0---0---0---0---0---0-|
|---------------------------------|
|---------------------------------|
|---------------------------------|
|-0-------4-------5-------7-------|x2

|-----0-------0-------0-------0-------0-------0--------|
|---0---0---0---0---0---0---0---0---0---0---0---0------|
|------------------------------------------------------|
|------------------------------------------------------|
|------------------------------------------------------|
|-0-------4-------5-------7-------9-------7-------5-/7-|

Bridge
|-----0-------0-------0-------0-------0-------0-------2/4---2^4^2---0-|
|---0---0---0---0---0---0---0---0---0---0---0---0---0-------0-------0-|
|---------------------------------------------------------------------|
|---------------------------------------------------------------------|
|---------------------------------------------------------------------|
|-2-------2-------4-------4-------5-------5-------0-------0-------0---|

|-----0-------0-------0-------0-------0-------0-----|
|---0---0---0---0---0---0---0---0---0---0---0---0---|
|---------------------------------------------------|
|---------------------------------------------------|
|---------------------------------------------------|
|-2-------2-------4-------4-------5-------5-------7-|

Last chorus: Repeat 5-7-9 as long as needed

Outro
|-----2/4---2^4^2^0---4---2---2---5---4-|
|---0-----------------5---4---4---7---5-|
|---------------------------------------|
|---------------------------------------|
|---------------------------------------|
|-0-------0---------0---0---0---0---0---|

|-----2/4---2^4^2^0---4---2---2---5---4---7---11---12---<12>-|
|---0-----------------5---4---4---7---5---9---12---12---<12>-|
|------------------------------------------------------------|
|------------------------------------------------------------|
|------------------------------------------------------------|
|-0-------0---------0---0---0---0---0---0---0----0----0------|
Tap to rate this tab
# A B C D E F G H I J K L M N O P Q R S T U V W X Y Z