Guitaretab - guitar tabs
Song name
# A B C D E F G H I J K L M N O P Q R S T U V W X Y Z

Jake Coco - Give You The Moon tab

Give you the moon  Jake Coco

http://www.jakecoco.com/

Standard tuning 

A simple, but Beautiful song. Enjoy it!



Intro: 

e|--------/4---2h4p2p0-----4-----2-----2-----5-----4--|
B|-------0-----------------5-----4-----4-----7-----5--|
G|----------------------------------------------------|
D|----------------------------------------------------|
A|----------------------------------------------------|
E|----0-----0-----------0-----0-----0-----0-----0-----| x2 

e|-------7-----11----14----11----12---(12)--|
B|-------7-----12----12----12----12---(12)--|
G|------------------------------------------|
D|------------------------------------------|
A|------------------------------------------|
E|----0-----0-----0-----0-----0------0------|



Verse 1:

e|-----0-----0-----0-----0---|
B|----0-0---0-0---0-0---0-0--|
G|---------------------------|
D|---------------------------|
A|---------------------------|
E|--0-----4-----5-----7------| x4

You were always changing clothes
Torn some dress and panty hose 
Crumpled up upon my floor 
And you'd abandoned all your dreams 
Give them up, or so it seemed 
For the chance to be my girl 



Bridge:

e|-----0-----0-----0-----0-----0-----0-----0-----|
B|----0-0---0-0---0-0---0-0---0-0---0-0---0-0----|
G|-----------------------------------------------|
D|-----------------------------------------------|
A|-----------------------------------------------|
E|--9-----7-----0-----0-----0-----4-----5-----7--|

And the world won't ever change 
If you always stay the same 



Chorus:

e|-----0-----0-----0-----0-----0-----0-----0-----0---|
B|----0-0---0-0---0-0---0-0---0-0---0-0---0-0---0-0--|
G|---------------------------------------------------|
D|---------------------------------------------------|
A|---------------------------------------------------|
E|--0-----4-----5-----7-----0-----4-----5-----7------|  

And I'd give you the moon if I could 
And I'd give you the stars if I could

e|-----0-----0-----0-----0-----0-----0-----|
B|----0-0---0-0---0-0---0-0---0-0---0-0----|
G|-----------------------------------------|
D|-----------------------------------------|
A|-----------------------------------------|
E|--0-----4-----5-----7-----9-----7-----5--|

And I'd give you my heart if you would take me as I am 



Verse 2:

e|-----0-----0-----0-----0---|
B|----0-0---0-0---0-0---0-0--|
G|---------------------------|
D|---------------------------|
A|---------------------------|
E|--0-----4-----5-----7------| x4

And you were always switching roles 
Now you love me, now you don't 
like a lover in disguise. 
But I was always chasing dreams 
Without an end, or so it seems 
But I guess that's how it goes 



Bridge:

e|-----0-----0-----0-----0-----0-----0-----0-----|
B|----0-0---0-0---0-0---0-0---0-0---0-0---0-0----|
G|-----------------------------------------------|
D|-----------------------------------------------|
A|-----------------------------------------------|
E|--9-----7-----0-----0-----0-----4-----5-----7--|

And the world won't ever change 
If you only stay the same 



Chorus:

e|-----0-----0-----0-----0-----0-----0-----0-----0---|
B|----0-0---0-0---0-0---0-0---0-0---0-0---0-0---0-0--|
G|---------------------------------------------------|
D|---------------------------------------------------|
A|---------------------------------------------------|
E|--0-----4-----5-----7-----0-----4-----5-----7------|  

And I'd give you the moon if I could 
And I'd give you the stars if I could
[ Tab from: http://www.guitaretab.com/j/jake-coco/82023.html ]
e|-----0-----0-----0-----0-----0-----0-----|
B|----0-0---0-0---0-0---0-0---0-0---0-0----|
G|-----------------------------------------|
D|-----------------------------------------|
A|-----------------------------------------|
E|--0-----4-----5-----7-----9-----7-----5--|

And I'd give you my heart if you would take me as I am 



Prelude:

e|-----0-----0-----0-----0-----0-----0-----/4---2h4p2p0----0--|
B|----0-0---0-0---0-0---0-0---0-0---0-0---0----------------0--|
G|------------------------------------------------------------|
D|------------------------------------------------------------|
A|------------------------------------------------------------|
E|--2-----2-----4-----4-----5-----5-----0-----0----------0----|  

And if only stars could shine as bright as you and I

e|-----0-----0-----0-----0-----0-----0-----0---|
B|----0-0---0-0---0-0---0-0---0-0---0-0---0-0--|
G|---------------------------------------------|
D|---------------------------------------------|
A|---------------------------------------------|
E|--2-----2-----4-----4-----5-----5-----7------| 

Maybe then I'd grow some wings and I could learn to fly 



Chorus:

e|-----0-----0-----0-----0-----0-----0-----0-----0---|
B|----0-0---0-0---0-0---0-0---0-0---0-0---0-0---0-0--|
G|---------------------------------------------------|
D|---------------------------------------------------|
A|---------------------------------------------------|
E|--0-----4-----5-----7-----0-----4-----5-----7------|  

And I'd give you the moon if I could 
And I'd give you the stars if I could

e|-----0-----0-----0-----0-----0-----0-----0-----0---|
B|----0-0---0-0---0-0---0-0---0-0---0-0---0-0---0-0--|
G|---------------------------------------------------|
D|---------------------------------------------------|
A|---------------------------------------------------|
E|--0-----4-----5-----7-----9-----7-----5-----7------|

And I'd give you my heart if you would take me as I am 

e|-----0-----0-----0-----0-----0-----0-----0-----0---|
B|----0-0---0-0---0-0---0-0---0-0---0-0---0-0---0-0--|
G|---------------------------------------------------|
D|---------------------------------------------------|
A|---------------------------------------------------|
E|--0-----4-----5-----7-----0-----4-----5-----7------|  

And I'd give you the moon if I could 
And I'd give you the stars if I could 

e|-----0-----0-----0-----0-----0-----0-----0---|
B|----0-0---0-0---0-0---0-0---0-0---0-0---0-0--|
G|---------------------------------------------|
D|---------------------------------------------|
A|---------------------------------------------|
E|--0-----4-----5-----7-----9-----7-----5------|

And I'd give you my heart if you would take me as I am 

e|-----0-----0-----0-----0-----0-----0-----0-----|
B|----0-0---0-0---0-0---0-0---0-0---0-0---0-0----|
G|-----------------------------------------------|
D|-----------------------------------------------|
A|-----------------------------------------------|
E|--7-----9-----7-----5-----7-----9-----7-----5--|

As I am, as I am, as I am, as I am



Outro:

e|--------/4---2h4p2p0-----4-----2-----2-----5-----4--|
B|-------0-----------------5-----4-----4-----7-----5--|
G|----------------------------------------------------|
D|----------------------------------------------------|
A|----------------------------------------------------|
E|----0-----0-----------0-----0-----0-----0-----0-----| x2 

e|-------7-----11----12----12--|
B|-------7-----12----12----12--|
G|-----------------------------|
D|-----------------------------|
A|-----------------------------|
E|----0-----0-----0-----0------| x2

e|-------7-----11----14----11----12---(12)--|
B|-------7-----12----12----12----12---(12)--|
G|------------------------------------------|
D|------------------------------------------|
A|------------------------------------------|
E|----0-----0-----0-----0-----0------0------|


/   :  slide up
h   :  hammer-on
p   :  pull-off
(12):  harmonic

Related for Give You The Moon tab