Song name
# A B C D E F G H I J K L M N O P Q R S T U V W X Y Z

Jake Coco - Best Love Song I Ever Wrote tab

Tuning: drop d standard
MY FIRST TAB AND I THINK IT SOUNDS GOOD
SO ENJOY.
[intro]

Guitar One
0:00 - 0:27
E|--------------------------------------------|
B|--------------------------------------------|
G|-9---9---6---7------------------------------|
D|-7---9---7---0------------------------------|
A|-7---7---4---0------------------------------|
D|-7---6---4---0------------------------------|

VERSE:
0:28 - 0:54

E|--------------------------------------------|
B|--------------------------------------------|
G|-9---9---6---7------------------------------|
D|-7---9---7---0------------------------------|   X2
A|-7---7---4---0------------------------------|
D|-7---6---4---0------------------------------|

PRE COURSE:
0:54

E|--------------------------------------------|
B|--------------------------------------------|
G|--------------------------------------------|
D|-2---0---2---0~-----------------------------|   
A|-2---0---2---0~-----------------------------|
D|-2---0---2---0~-----------------------------|

COURSE:
1:10

E|--------------------------------------------|
B|--------------------------------------------|
G|-9------------------------------------------|
D|-7---0---0---2------------------------------|
A|-7---0---0---2------------------------------|
D|-7---0---0---2------------------------------|

E|--------------------------------------------|
B|--------------------------------------------|
G|-9---9---6---7------------------------------|
D|-7---9---7---0----------2~------------------|
A|-7---7---4---0----------2~------------------|
D|-7---6---4---0----------2~------------------|

repeat intro
E|--------------------------------------------|
B|--------------------------------------------|
G|-9---9---6---7------------------------------|
D|-7---9---7---0------------------------------|
A|-7---7---4---0------------------------------|
D|-7---6---4---0------------------------------|

Verse two


E|--------------------------------------------|
B|--------------------------------------------|
G|-9---9---6---7------------------------------|
D|-7---9---7---0------------------------------|   X2
A|-7---7---4---0------------------------------|
D|-7---6---4---0------------------------------|



PRE COURSE:
0:54

E|--------------------------------------------|
B|--------------------------------------------|
G|--------------------------------------------|
D|-2---0---2---0~-----------------------------|   
A|-2---0---2---0~-----------------------------|
D|-2---0---2---0~-----------------------------|

COURSE TWO:


E|--------------------------------------------|
B|--------------------------------------------|
G|-9------------------------------------------|
D|-7---0---0---2------------------------------|
A|-7---0---0---2------------------------------|
D|-7---0---0---2------------------------------|

E|--------------------------------------------|
B|--------------------------------------------|
G|-9---9---6---7------------------------------|
D|-7---9---7---0----------2~------------------|
A|-7---7---4---0----------2~------------------|
D|-7---6---4---0----------2~------------------|

repeat intro
E|--------------------------------------------|
B|--------------------------------------------|
G|-9---9---6---7------------------------------|
D|-7---9---7---0------------------------------|
A|-7---7---4---0------------------------------|
D|-7---6---4---0------------------------------|

AND U CAN PRETTY MUCH FIGURE IT OUT AFTER THIS
Tap to rate this tab
# A B C D E F G H I J K L M N O P Q R S T U V W X Y Z