Song name
# A B C D E F G H I J K L M N O P Q R S T U V W X Y Z

Jake La Botz - Hard To Love What You Kill tab

Jake La Botz - hard to love what you kill (tab by Nickey Whitfield)

Capo on 4th fret

G - Em - G - C - Em - Am - c - Em - Am

Intro

e|-------------------------------------------------------------------|
B|------3-------3-------3---------------------------0h1--------------|
G|--------2-2-----2-2-----0-0-------------2-2---2-2-----2-2---2------|
D|----0------------------------0-0--------2-2---2-2-------2---2------|
A|------------3-------2--------3-2------0-----0-----0-------0---0h2--|
E|----------------------------------3h4------------------- ----------|

Verse

e|---------------------------------------------------------------------------------------------|
B|---------------------------------------------1-1-1---------------1-1-1-0h1------1-1-1---1----|
G|------0-0-0----0-0-0----0-0-0-----0-0-0------0-0-------0-0-0-----2-2------2-----2-2-----2----|
D|------0-0------2-2------2-2-------0-0------2-----------2-2-----2--------------2--------2-----|
A|----2--------2--------2---------2--------3-----------2-------0---------0----0--------0-------|
E|--3--------0--------0---------3--------------------0-----------------------------------------|

e|-----------------------------------------------------------|
B|----------1-1--------------1-0h1---------------------------|
G|----------0------0-0-0-----2----2---------0----------------|
D|--------2--------2-2-----2----------------0---and so on----|
A|--0-2-3--------2-------0-----0----0h2---2------------------|
E|-------------0------------------------3--------------------|

Chorus

e|-------------------------------------------------------------------|
B|------3-------3-------3---------------------------0h1--------------|
G|--------2-2-----2-2-----0-0-------------2-2---2-2-----2-2---2------|
D|----0------------------------0-0--------2-2---2-2-------2---2------|
A|------------3-------2--------3-2------0-----0-----0-------0---0h2--|
E|----------------------------------3h4------------------- ----------|


Had my finger on 
The trigger so long 
Seems like Iíd shoot again by now
But itís hard when you canít stand the sound

And itís hard to trust 
In the rust 
That collects on my forty-four
And I donít want to shoot anymore.

And itís hard
Ain't it hard to love what you kill

I gathered your remains 
And cleaned up the stains 
I took care for we once were friends

But itís hard when your song never ends
And its hard enough 
To be in love

And itís hard
Ain't it hard to love what you kill

Iíve paid a lot of debt
And I do not regret 
The blood that Iíve spilled so well 
But itís hard when youíre burning in hell

And itís hard 
Ain't it hard

Questions: funtwo@gmx.net
Tap to rate this tab
 
# A B C D E F G H I J K L M N O P Q R S T U V W X Y Z