Song name
# A B C D E F G H I J K L M N O P Q R S T U V W X Y Z

Jake La Botz - Graveyard Jones tab

Jake La Botz - graveyard jones (tab by Nickey Whitfield)

weird G (same as used in "sincerely yours" in higher positions), Em, B7

Intro and Verse

e|----------0-----------0----0--3---0-0----------------------|
B|-----------------0------3b-------------------------1-0-----|
G|---3h4------0--2----------------3----0---------2-2-----2---|
D|-------0----2------1------------2----2---------------------|
A|-------2-------2---2--------------------0h1-2--2-------2---|
E|---3------0-----------0-------3---0------------------------|

Chorus

e|------0-5---x--6--5--3--------------------------------|
B|---3b---5---x----------------------1-0---0------------|
G|--------5---x--6--5--0---------2-2-----2--------------| 
D|--------7---x-----------------------------------------|
A|--------7---x------------0h1-2-2-------2--------------|
E|--------5---x--6--5--3--------------------------------|

e|-------8-----5------2---------|
B|-------7-----4------1---------|
G|-----8-----5------2-----------|
D|---7-----4------1-------------|
A|------------------------------|
E|------------------------------|

If you’re ever in need of a plumber 
You ought to call on Graveyard Jones. 
He’s mighty handy with a plunger 
And if you listen real close you can hear confessions in the rattling of his bones.

Well I’m listening…

And I heard: 
“I was here when people still told stories. 
It was back in the days when they still had feet. 
Forget about everything you’ve heard until now. 
Walking and talking were the ways that a human being got around.”

Well I’m walking…

And I followed old Jones down to his graveyard. 
There was a shovel sticking out of the ground. 
And that voice said “sonny, well you better dig… 
Because the way things are looking up here there is nowhere else to go but down.”

Well I’m digging…
Down, down, down.

And I saw that people once had bodies 
Quite different from what we have now.
Every single part had a function 
connected by an unmelodious yet harmonious effervescent sound.

Well I’m singing…
Singing, singing, singing…for Graveyard Jones. 
Tap to rate this tab
# A B C D E F G H I J K L M N O P Q R S T U V W X Y Z