Song name
# A B C D E F G H I J K L M N O P Q R S T U V W X Y Z

Jake La Botz - Getting Closer tab

Jake La Botz - Getting Closer

C - G7 - Am

This is the intro and the patterns used throughout the whole song.
He varies the different patterns in the live-version quite frequently
but sort of randomly as well so you just use them however you think sounds
good.


e|----------3-5p3-------------------------3-5p3----------------------------------|
B|------3/5-------5p3--1--3-----------3/5-------5p3------3-3--------3b-3br3-1----|
G|--------------------------0---0---------------------0--------0-----------------|
D|---0--0---------0-----------0-----------------------2------0-------------------|
A|------------0--------3------2----0--0-----0---0---3-------------0--------------|
E|------------------------3------------------------------3-----------------------|

e|--3-------------------------------------------------------3---3--------------------------------|
B|----1----3---------1--3b4r3--1-------------3----------3/5---5----1--3------------1-3b4r3-1-----|
G|------0----0-------------------2p0------0----0-------------------0----0--------2-----------2p0-|
D|------2------0------------------------2--------0------------------------0----2-----------------|
A|--3----------2---0------------------3----------2---0-------------3------2--0-------------------|
E|---------3---------------------------------3------------------------3--------------------------|


Bomb-pa-dee-da-lomp-bomb.
Bomb-pa-dee-da-lomp-bomb.
Bomb-pa-dee-da-lomp-bomb.
Bomb-pa-dee-da-lomp-bomb.

Getting closer.
Getting closer.
Getting closer
…to the ground.
To the ground.

Downstairs.
With long black hairs.
Change them clothes…
for you come in here.

Walk in the door.
The old woman’s store.
Darkest light…
ever seen before.

Getting closer.
Getting closer.
Getting closer…
to the ground.
To the ground.

She’s asking,
“What do you own…
that’s not on loan?”
Said, “When your dead…
the loan’s still owed.”

Getting closer.
Getting closer.
Getting closer…
to the ground.
To the ground.

Bomb-pa-dee-da-lomp-bomb.
Bomb-pa-dee-da-lomp-bomb.
Bomb-pa-dee-da-lomp-bomb.
Bomb-pa-dee-da-lomp-bomb.
Bomb-pa-dee-da-lomp-bomb.
Bomb-pa-dee-da-lomp-bomb.
Tap to rate this tab
# A B C D E F G H I J K L M N O P Q R S T U V W X Y Z