Song name
# A B C D E F G H I J K L M N O P Q R S T U V W X Y Z

Jake Nauta - Here With You tab

Most of these are just chords, but i didn't know how to describe the strum pattern or 
single notes... actually i didn't know the chord names so i decided to give tabs a try...
 These are my first tabs!... EVER!! so please be nice! correct me!

Key: h mean hammer e.g. 0h2 means play 0 hammer on 2.

--------------------------------------------->
JAKE NAUTA - HERE WITH YOU
--------------------------------------------->

Capo 3.

The chords are: F (xx3211), C/F? (xx2011), Dmin? (xxx211), A#? (xx311).

Introduction

 F                   C/F                Dmin               A#?
e|--1--111|--1 --111|--1--111|- -1--111|--1--111|- -1--111|--1--111|--1--111|
B|--1--111|--1 --111|--1--111|- -1--111|--1--111|- -1--111|--1--111|--1--111|
G|--2--222|--0h2-222|--0--000|- -0--000|--2--222|0h2------|3-------|3-------|
D|3-------|3-- -----|2-------|0h2------|0-------|- -------|--------|--------|
A|--------|--- -----|--------|- -------|--------|- -------|--------|--------|
E|--------|--- -----|--------|- -------|--------|- -------|--------|--------|

Verse1
 F                   C/F                Dmin               A#?
e|--1--111|--1 --111|--1--111|- -1--111|--1--111|- -1--111|--1--111|--1--111|
B|--1--111|--1 --111|--1--111|- -1--111|--1--111|- -1--111|--1--111|--1--111|
G|--2--222|--0h2-222|--0--000|- -0--000|--2--222|0h2---222|3-------|3-------| Repeat
D|3-------|3-- -----|2-------|0h2------|0-------|- -------|--------|--------|
A|--------|--- -----|--------|- -------|--------|- -------|--------|--------|
E|--------|--- -----|--------|- -------|--------|- -------|--------|--------|
Instrumental
 A#?
e|--1--111|--1--111|
B|--1--111|--1--111|
G|3-------|3-------|
D|--------|--------|
A|--------|--------|
E|--------|--------|

Verse2
 F                   C/F                Dmin               A#?
e|--1--111|--1 --111|--1--111|- -1--111|--1--111|- -1--111|--1--111|--1--111|
B|--1--111|--1 --111|--1--111|- -1--111|--1--111|- -1--111|--1--111|--1--111|
G|--2--222|--0h2-222|--0--000|- -0--000|--2--222|0h2---222|3-------|3-------|
D|3-------|3-- -----|2-------|0h2------|0-------|- -------|--------|--------|
A|--------|--- -----|--------|- -------|--------|- -------|--------|--------|
E|--------|--- -----|--------|- -------|--------|- -------|--------|--------|

 F                  C/F                Dmin     C/F      A#?
e|--1--111|--1---11|--1--111|- -1--111|--1--111|--1--111|--1--111|--1--111|
B|--1--111|--1---11|--1--111|- -1--111|--1--111|--1--111|--1--111|--1--111|
G|--2--222|--2---22|--0--000|- -0--000|--2--222|--0--000|3-------|3-------|
D|3-------|0---3---|--2--222|0h2------|0-------|--------|--------|--------|
A|--------|--------|3-------|- -------|--------|3-------|--------|--------|
E|--------|--------|--------|- -------|--------|--------|--------|--------|

Chorus (pretty much verse 1 but with different ending)
e|--1--111|--1 --111|--1--111|- -1--111|--1--111|- -1--111|--1--111|--1--111|
B|--1--111|--1 --111|--1--111|- -1--111|--1--111|- -1--111|--1--111|--1--111|
G|--2--222|--0h2-222|--0--000|- -0--000|--2--222|0h2---222|3-------|3-------|
D|3-------|3-- -----|2-------|0h2------|0-------|- -------|--------|--------|
A|--------|--- -----|--------|- -------|--------|- -------|--------|--------|
E|--------|--- -----|--------|- -------|--------|- -------|--------|--------|

e|--1--111|--1 --111|--1--111|- -1--111|--1--111|- -1--111|--1--111|--1--111|
B|--1--111|--1 --111|--1--111|- -1--111|--1--111|- -1--111|--1--111|--1--111|
G|--2--222|--0h2-222|--0--000|- -0--000|--2--222|0h2---222|3-------|--0--000|
D|3-------|3-- -----|2-------|0h2------|0-------|- -------|--------|2-------|
A|--------|--- -----|--------|- -------|--------|- -------|--------|--------|
E|--------|--- -----|--------|- -------|--------|- -------|--------|--------|
Instrumental
e|--1--111|--1 --111|--1--111|--1 --111|
B|--1--111|--1 --111|--1--111|--1 --111|
G|--2--222|--0h2-222|--2--222|--0h2-222|
D|3-------|3-- -----|3-------|3-- -----|
A|--------|--- -----|--------|--- -----|
E|--------|--- -----|--------|--- -----|

Verse 3, Identical to Verse 2

Prechorus:
                      F        C/F
"cause i know what it takes to love


e|--1--111|--1--111|
B|--1--111|--1--111|
G|3-------|3-------|
D|--------|--------|
A|--------|--------|
E|--------|--------|
me still"

Chorus (same as above but with some repetition)

Instrumental
e|--1--111|--1 --111|--1--111|--1 --111|
B|--1--111|--1 --111|--1--111|--1 --111|
G|--2--222|--0h2-222|--2--222|--0h2-222|
D|3-------|3-- -----|3-------|3-- -----|
A|--------|--- -----|--------|--- -----|
E|--------|--- -----|--------|--- -----|

Outro ("cause this time....")

e|--1--111|--1 --111|--1--111|- -1--111|--1--111|--1--111|--1--111|--1--111|--1--1--|1--->
B|--1--111|--1 --111|--1--111|- -1--111|--1--111|--1--111|--1--111|--1--111|--1--1--|1--->
G|--2--222|--0h2-222|--0--000|- -0--000|--2--222|--2--222|3-------|--------|--2--20-|2--->
D|3-------|3-- -----|2-------|0h2------|0-------|--------|--------|--------|3-------|3--->
A|--------|--- -----|--------|- -------|--------|3-------|--------|3-------|--------|---->
E|--------|--- -----|--------|- -------|--------|--------|--------|--------|--------|---->
Tap to rate this tab
 
# A B C D E F G H I J K L M N O P Q R S T U V W X Y Z