Song name
# A B C D E F G H I J K L M N O P Q R S T U V W X Y Z

Jake Owen - Dont Think I Cant Love You tab

Thank you all for looking, and this is just a quick and simple tab for the introduction 
Jake Owen's song "Don't Think I Can't Love You."

The notes are very easy, and the rhythm is very simple to pick out.  Also, remember that 
style of this song is very bluesy, so keep the vibrato up and all whatnot.

-------6--b9--b9--b9--8----b9--8--6---6---6--b9--|--b11--9----8--6--6--8----|
--6h8--------------------------------------------|--------------------------|
-------------------------------------------------|--------------------------|
-------------------------------------------------|--------------------------|
-------------------------------------------------|--------------------------|
-------------------------------------------------|--------------------------|


--6----8--------8----|
----------8--6-------|
---------------------|
---------------------|
---------------------|
---------------------|
Tap to rate this tab
# A B C D E F G H I J K L M N O P Q R S T U V W X Y Z