Jake Owen - Eight Second Ride tab

e\--------------------------------------------------------------------------\
B\-------------------6p5--5h6p5---------------------------------------------\
G\---------7p5--5h7--------------5------------2---------2-------------------\
D\----5h7---------------------------7--5p3h5-----5p3h5-----5p3--------------\
A\--------------------------------------------------------------5p3h5-------\
E\--------------------------------------------------------------------------\

e\---------------------------------------------------------------------------\
B\--------------------6p5--5h6p5---------------------------------------------\
G\----------7p5--5h7--------------5------------2-----------------------------\
D\-----5h7---------------------------7--5p3h5-----5p3h5----------------------\
A\---------------------------------------------------------------------------\
E\---------------------------------------------------------------------------\

Tabbed By: Rhodges54
!!!!110% correct. this is the first lick thing played at the beginning and after the chorus/
I haven't done the very beginning part with the finger picking yet but this riff 
is very fun to play.
Tap to rate this tab
 
# A B C D E F G H I J K L M N O P Q R S T U V W X Y Z