Guitaretab - guitar tabs
Song name
# A B C D E F G H I J K L M N O P Q R S T U V W X Y Z

Jake Owens - 8 Second Ride tab

-------------------------------------------------------------------------------
			8 Second Ride  Jake Owens
-------------------------------------------------------------------------------
Tabbed by: jwchapman
Email: winfieldc15@gmail.com

Chords can be found most places, but this should be the first intro guitar riff 
on the internet...

Tuning: Standard

e|----------------------------------------------|
B|------5----5--5h6p5---------------------------|
G|--5h7--5h7---------7p5------------------------|
D|----------------------7p5~--------------------|
A|----------------------------------------------|
E|----------------------------------------------|
[ Tab from: http://www.guitaretab.com/j/jake-owens/192502.html ]
e|----------------------------------------------|
B|----------------------------------------------|
G|----------------------------------------------|
D|--5p3--5~---5p3--5~---5b7r5p3-----------------|
A|-----------------------------5p3h5/-----------|
E|----------------------------------------------|

e|----------------------------------------------|
B|------5----5--5h6p5---------------------------|
G|--5h7--5h7---------7p5------------------------|
D|----------------------7p5~--------------------|
A|----------------------------------------------|
E|----------------------------------------------|

e|----------------------------------------------|
B|----------------------------------------------|
G|---5p3--3---5p3--3----5-5b~~------------------|
D|----------------------------------------------|
A|----------------------------------------------|
E|----------------------------------------------|

Chords repeat D, C, G, D, C, G, D...
Related for 8 Second Ride tab