Song name
# A B C D E F G H I J K L M N O P Q R S T U V W X Y Z

Jake Pitts - Two Notes tab

----------------------------------------------------------------------------
                             Two Notes
                             Jake Pitts
----------------------------------------------------------------------------

“Two Notes” is not super technical, but it is definitely a lot of fun to play. 
Jake Pitts shows his creative side in this demo song. Enjoy!

Username: dkm817 (same on X box live)
Youtube Cover: http://www.youtube.com/watch?v=BsPyQ97A2V4
Email: guitardrums@rockfan.com

Guitar 1 Rhythmic (C G C F A D)
Guitar 2 Lead     (C G C F A D)

NOTE: This was exported off of guitar pro.

Guitar 1

     S S S S S S S S S S S S S S S S    S S S S S S S S S S S S S S S S  
D||----------------------------------|----------------------------------|
A||----------------------------------|----------------------------------|
F||----------------------------------|----------------------------------|
C||----------------------------------|----------------------------------|
G||----------------------------------|----------------------------------|
C||--0-0-0-0-8-0-0-0-0-3-7-0-8-0-7-3-|--0-0-0-0-8-0-0-0-0-3-7-0-8-8-8-8-|


  S S S S S S S S S S S S S S S S    S S S S S S S S S S S S S S S S  
----------------------------------|----------------------------------|
----------------------------------|----------------------------------|
----------------------------------|----------------------------------|
----------------------------------|----------------------------------|
----------------------------------|----------------------------------|
--3-3-3-3-8-3-3-3-3-5-7-3-8-3-7-5-|--7-7-7-7-7-7-7-7-2-3-2-3-2-0-2---|


  E  E  E  E  E  E  E  S S    E  E  E  E  T T T T T T T T  T T T T T T T T  
---------------------------|-----------------------------------------------|
---------------------------|-----------------------------------------------|
--7-----------7-----8--7-8-|--7--------------------------------------------|
--7-----------7-----8--7-8-|--7--------------------------------------------|
--5-----------5-----6--5-6-|--5--------------------------------------------|
---------------------------|--------------8-0-0-0-7-0-0-0-10-0-0-0-8-0-0-0-|


     PM PM PM PM PM PM PM PM PM    PM PM       PM    
  E  T  T  S  T  T  S  T  T  S  E  S  S  T T S S  S  
----------------------------------------------------|
----------------------------------------------------|
--7-----------------------------5-------------------|
--7--0--0--0--0--0--0--0--0--0--5--0--0-------------|
--5--0--0--0--0--0--0--0--0--0--3--0--0-----------0-|
-----0--0--0--0--0--0--0--0--0-----0--0--0-1-0-0----|


     PM PM PM PM PM PM PM PM PM PM PM PM PM PM PM PM PM PM PM  
  E  S  S  T  T  S  S  S  T  T  S  T  T  S  T  T  S  T  T  S   
--------------------------------------------------------------|
--------------------------------------------------------------|
--------------------------------------------------------------|
--0--0--0--0--0--0--0--0--0--0--0--0--0--0--0--0--0--0--0--0--|
--0--0--0--0--0--0--0--0--0--0--0--0--0--0--0--0--0--0--0--0--|
--0--0--0--0--0--0--0--0--0--0--0--0--0--0--0--0--0--0--0--0--|


     PM PM PM PM PM PM PM PM PM    PM PM PM         
  E  T  T  S  T  T  S  T  T  S  E  T  T  S  E  S S  
---------------------------------------------------|
---------------------------------------------------|
--7-----------------------------7-----------8--7-8-|
--7--0--0--0--0--0--0--0--0--0--7--0--0--0--8--7-8-|
--5--0--0--0--0--0--0--0--0--0--5--0--0--0--6--5-6-|
-----0--0--0--0--0--0--0--0--0-----0--0--0---------|


     PM PM PM PM PM PM PM PM PM                                   
  E  T  T  S  T  T  S  T  T  S  T T T T T T T T  T T T T T T T T  
-----------------------------------------------------------------|
-----------------------------------------------------------------|
--7--------------------------------------------------------------|
--7--0--0--0--0--0--0--0--0--0-----------------------------------|
--5--0--0--0--0--0--0--0--0--0-----------------------------------|
-----0--0--0--0--0--0--0--0--0--8-0-0-0-7-0-0-0-10-0-0-0-8-0-0-0-|


     PM PM PM PM PM PM PM PM PM    PM PM       PM    
  E  T  T  S  T  T  S  T  T  S  E  S  S  T T S S  S  
----------------------------------------------------|
----------------------------------------------------|
--7-----------------------------5-------------------|
--7--0--0--0--0--0--0--0--0--0--5--0--0-------------|
--5--0--0--0--0--0--0--0--0--0--3--0--0-----------0-|
-----0--0--0--0--0--0--0--0--0-----0--0--0-1-0-0----|


     PM PM PM PM PM PM PM PM PM PM PM PM PM PM PM PM PM PM PM  
  E  S  S  T  T  S  S  S  T  T  S  T  T  S  T  T  S  T  T  S   
--------------------------------------------------------------|
--------------------------------------------------------------|
--------------------------------------------------------------|
--0--0--0--0--0--0--0--0--0--0--0--0--0--0--0--0--0--0--0--0--|
--0--0--0--0--0--0--0--0--0--0--0--0--0--0--0--0--0--0--0--0--|
--0--0--0--0--0--0--0--0--0--0--0--0--0--0--0--0--0--0--0--0--|


    PM PM   PM PM   PM   PM   PM   PM   PM  
  S S  S  S S  S  S S  S S  S S  S S  S S   
-------------------------------------------|
-------------------------------------------|
-------------------------------------------|
-------------------------------------------|
--5-------5-------5----8----7----5----7----|
----0--0----0--0----0----0----0----0----0--|


    PM PM   PM PM   PM                    
  S S  S  S S  S  S S  T T S S S S S S S  
-----------------------------------------|
-----------------------------------------|
-----------------------------------------|
-----------------------------------------|
--4-------4-------4----7-8-7-5-7-5-4-5-4-|
----0--0----0--0----0--------------------|


    PM PM   PM PM   PM   PM   PM   PM   PM  
  S S  S  S S  S  S S  S S  S S  S S  S S   
-------------------------------------------|
-------------------------------------------|
-------------------------------------------|
-------------------------------------------|
--5-------5-------5----8----7----5----7----|
----0--0----0--0----0----0----0----0----0--|


    PM PM   PM PM   PM                    
  S S  S  S S  S  S S  T T S S S S S S S  
-----------------------------------------|
-----------------------------------------|
-----------------------------------------|
-----------------------------------------|
--4-------4-------4------------------5---|
----0--0----0--0----0--7-8-7-5-7-5-3---2-|


    PM PM   PM PM   PM    PM    PM   PM    PM  
  S S  S  S S  S  S S   S S   S S  S S   S S   
----------------------------------------------|
----------------------------------------------|
----------------------------------------------|
----------------------------------------------|
--8-------8-------8----12----10----8----10----|
----0--0----0--0----0-----0-----0----0-----0--|


    PM PM   PM PM   PM       PM   PM    PM     
  S S  S  S S  S  S S  T T S S  S S   S S   S  
----------------------------------------------|
----------------------------------------------|
----------------------------------------------|
----------------------------------------------|
--7-------7-------7----7-8-7----8----10----12-|
----0--0----0--0----0--------0----0-----0-----|


    PM PM   PM PM   PM    PM    PM   PM    PM  
  S S  S  S S  S  S S   S S   S S  S S   S S   
----------------------------------------------|
----------------------------------------------|
----------------------------------------------|
----------------------------------------------|
--8-------8-------8----12----10----8----10----|
----0--0----0--0----0-----0-----0----0-----0--|


    PM PM   PM PM   PM                    
  S S  S  S S  S  S S  T T S S S S S S S  
-----------------------------------------|
-----------------------------------------|
-----------------------------------------|
-----------------------------------------|
--7-------7-------7------------------5---|
----0--0----0--0----0--7-8-7-5-7-5-3---2-|


  PM PM PM   PM PM PM PM PM PM PM PM PM PM   PM PM PM PM PM PM PM  
  T  T  S  S S  T  T  S  T  T  S  T  T  S  S S  T  T  S  T  T  S   
------------------------------------------------------------------|
------------------------------------------------------------------|
------------------------------------------------------------------|
--0--0--0----0--0--0--0--0--0--0--0--0--0----0--0--0--0--0--0--0--|
--0--0--0----0--0--0--0--0--0--0--0--0--0----0--0--0--0--0--0--0--|
--0--0--0----0--0--0--0--0--0--0--0--0--0----0--0--0--0--0--0--0--|


  PM PM PM   PM PM PM PM PM PM PM                    
  T  T  S  S S  T  T  S  T  T  S  T T S S S S S S S  
----------------------------------------------------|
----------------------------------------------------|
----------------------------------------------------|
--0--0--0----0--0--0--0--0--0--0--------------------|
--0--0--0----0--0--0--0--0--0--0----------------5---|
--0--0--0----0--0--0--0--0--0--0--7-8-7-5-7-5-3---2-|


  PM PM PM PM PM PM PM PM PM PM PM PM PM PM PM PM PM PM PM PM PM PM PM PM PM PM 
  T  T  T  T  T  T  T  T  T  T  T  T  T  T  T  T  T  T  T  T  T  T  T  T  T  T  
--------------------------------------------------------------------------------
--------------------------------------------------------------------------------
--------------------------------------------------------------------------------
--------------------------------------------------------------------------------
--------------------------------------------------------------------------------
--3--3--3--3--3--3--3--3--3--3--3--3--3--3--3--3--2--2--2--2--2--2--2--2--2--2--


    PM PM PM PM PM PM PM PM   PM PM   PH                                        
  S S  S  S  S  S  S  S  S  S S  S    Q        S S S S S S S S S S S S S S S S  
--------------------------------------------|----------------------------------|
--------------------------------------------|----------------------------------|
--------------------------------------------|----------------------------------|
--0-0--0--0--0--0--0--0--0----0--0----------|----------------------------------|
--0-0--0--0--0--0--0--0--0----0--0----------|----------------------------------|
--0-0--0--0--0--0--0--0--0--2-0--0--<>3~----|--0-0-0-0-8-0-0-0-0-3-7-0-8-0-7-3-|


  S S S S S S S S S S S S S S S S    S S S S S S S S S S S S S S S S  
----------------------------------|----------------------------------|
----------------------------------|----------------------------------|
----------------------------------|----------------------------------|
----------------------------------|----------------------------------|
----------------------------------|----------------------------------|
--0-0-0-0-8-0-0-0-0-3-7-0-8-8-8-8-|--3-3-3-3-8-3-3-3-3-5-7-3-8-3-7-5-|


  S S S S S S S S S S S S S S S S    S S S S S S S S S S S S S S S S  
----------------------------------|----------------------------------|
----------------------------------|----------------------------------|
----------------------------------|----------------------------------|
----------------------------------|----------------------------------|
----------------------------------|----------------------------------|
--7-7-7-7-7-7-7-7-2-3-2-3-2-0-2-3-|--0-0-0-0-8-0-0-0-0-3-7-0-8-0-7-3-|


  S S S S S S S S S S S S S S S S    S S S S S S S S S S S S S S S S  
----------------------------------|----------------------------------|
----------------------------------|----------------------------------|
----------------------------------|----------------------------------|
----------------------------------|----------------------------------|
----------------------------------|----------------------------------|
--0-0-0-0-8-0-0-0-0-3-7-0-8-8-8-8-|--3-3-3-3-8-3-3-3-3-5-7-3-8-3-7-5-|


                                        PM PM PM PM PM PM    PM PM         
  S S S S S S S S S S S S S S S S    E  S  S  S  S  S  S  E  S  S  E  S S  
----------------------------------|---------------------------------------|
----------------------------------|---------------------------------------|
----------------------------------|---------------------------------------|
----------------------------------|--0--0--0--0--0--0--0--0--0--0--1--0-1-|
----------------------------------|--0--0--0--0--0--0--0--0--0--0--1--0-1-|
--7-7-7-7-7-7-7-7-2-3-2-3-2-0-2-3-|--0--0--0--0--0--0--0--0--0--0--1--0-1-|


     PM PM PM PM PM PM                                   
  E  S  S  S  S  S  S  T T T T T T T T  T T T T T T T T  
--------------------------------------------------------|
--------------------------------------------------------|
--------------------------------------------------------|
--0--0--0--0--0--0--0-----------------------------------|
--0--0--0--0--0--0--0-----------------------------------|
--0--0--0--0--0--0--0--8-0-0-0-7-0-0-0-10-0-0-0-8-0-0-0-|


     PM PM PM PM PM PM    PM PM         
  E  S  S  S  S  S  S  E  S  S  E  S S  
---------------------------------------|
---------------------------------------|
---------------------------------------|
--0--0--0--0--0--0--0--0--0--0--1--0-1-|
--0--0--0--0--0--0--0--0--0--0--1--0-1-|
--0--0--0--0--0--0--0--0--0--0--1--0-1-|


     PM PM PM PM PM PM PM PM PM PM PM PM PM PM PM PM  
  E  S  S  S  S  S  S  S  S  T  T  S  S  S  T  T  S   
-----------------------------------------------------|
-----------------------------------------------------|
-----------------------------------------------------|
--0--0--0--0--0--0--0--0--0--0--0--0--0--0--0--0--0--|
--0--0--0--0--0--0--0--0--0--0--0--0--0--0--0--0--0--|
--0--0--0--0--0--0--0--0--0--0--0--0--0--0--0--0--0--|


    PM PM   PM PM   PM    PM    PM   PM    PM  
  S S  S  S S  S  S S   S S   S S  S S   S S   
----------------------------------------------|
----------------------------------------------|
----------------------------------------------|
----------------------------------------------|
--8-------8-------8----12----10----8----10----|
----0--0----0--0----0-----0-----0----0-----0--|


    PM PM   PM PM   PM                        
  S S  S  S S  S  S S   T  T  S S  S S S S S  
---------------------------------------------|
---------------------------------------------|
---------------------------------------------|
---------------------------------------------|
--7-------7-------7----10-12-10-8-10-8-7-8-7-|
----0--0----0--0----0------------------------|


    PM PM   PM PM   PM    PM    PM   PM    PM  
  S S  S  S S  S  S S   S S   S S  S S   S S   
----------------------------------------------|
----------------------------------------------|
----------------------------------------------|
----------------------------------------------|
--8-------8-------8----12----10----8----10----|
----0--0----0--0----0-----0-----0----0-----0--|


    PM PM   PM PM   PM                    
  S S  S  S S  S  S S  T T S S S S S S S  
-----------------------------------------|
-----------------------------------------|
-----------------------------------------|
-------------------------------------3---|
--7-------7-------7----------------------|
----0--0----0--0----0--7-8-7-5-7-5-3---2-|


    PM PM   PM PM   PM    PM    PM    PM    PM  
  S S  S  S S  S  S S   S S   S S   S S   S S   
-----------------------------------------------|
-----------------------------------------------|
-----------------------------------------------|
-----------------------------------------------|
--8-------8-------8----12----10----12----13----|
----0--0----0--0----0-----0-----0-----0-----0--|


     PM PM    PM PM    PM                             
   S S  S   S S  S   S S   T  T  S  S  S  S  S  S  S  
-----------------------------------------------------|
-----------------------------------------------------|
-----------------------------------------------------|
-----------------------------------------------------|
--16-------16-------16----15-16-15-13-16-13-12-13-12-|
-----0--0-----0--0-----0-----------------------------|


     PM PM    PM PM    PM    PM    PM    PM    PM  
   S S  S   S S  S   S S   S S   S S   S S   S S   
--------------------------------------------------|
--------------------------------------------------|
--------------------------------------------------|
--------------------------------------------------|
--12-------12-------12----15----13----12----13----|
-----0--0-----0--0-----0-----0-----0-----0-----0--|


     PM PM    PM PM    PM                        
   S S  S   S S  S   S S   T  T  S S  S S S S S  
------------------------------------------------|
------------------------------------------------|
------------------------------------------------|
------------------------------------------------|
--10-------10-------10----------------------8---|
-----0--0-----0--0-----0--10-12-10-8-10-8-7---5-|


     PM PM    PM PM    PM PM    PM PM    PM    PM  
   S S  S   S S  S   S S  S   S S  S   S S   S S   
--------------------------------------------------|
--------------------------------------------------|
--------------------------------------------------|
--------------------------------------------------|
--12-------12-------12-------12-------12----12----|
-----8--8-----8--8-----8--8-----8--8-----8-----8--|


     PM PM    PM PM    PM                          
   S S  S   S S  S   S S   T  T  S S  S  S S  S S  
--------------------------------------------------|
--------------------------------------------------|
--------------------------------------------------|
--------------------------------------------------|
--10-------10-------10----10-12-10-8-10-12------8-|
-----8--8-----8--8-----8-------------------8-12---|


  S S S S S S S S S S S S S S S S    S S S S S S S S S S S S S S S S  
----------------------------------|----------------------------------|
----------------------------------|----------------------------------|
----------------------------------|----------------------------------|
----------------------------------|----------------------------------|
----------------------------------|----------------------------------|
--0-0-0-0-8-0-0-0-0-3-7-0-8-0-7-3-|--0-0-0-0-8-0-0-0-0-3-7-0-8-8-8-8-|


  S S S S S S S S S S S S S S S S    S S S S S S S S S S S S S S S S  
----------------------------------|----------------------------------|
----------------------------------|----------------------------------|
----------------------------------|----------------------------------|
----------------------------------|----------------------------------|
----------------------------------|----------------------------------|
--3-3-3-3-8-3-3-3-3-5-7-3-8-3-7-5-|--7-7-7-7-7-7-7-7-2-3-2-3-2-0-2-3-|


  S S S S S S S S S S S S S S S S    S S S S S S S S S S S S S S S S  
----------------------------------|----------------------------------|
----------------------------------|----------------------------------|
----------------------------------|----------------------------------|
----------------------------------|----------------------------------|
----------------------------------|----------------------------------|
--0-0-0-0-8-0-0-0-0-3-7-0-8-0-7-3-|--0-0-0-0-8-0-0-0-0-3-7-0-8-8-8-8-|


  S S S S S S S S S S S S S S S S    S S S S S S S S S S S S S S S S  
----------------------------------|----------------------------------|
----------------------------------|----------------------------------|
----------------------------------|----------------------------------|
----------------------------------|----------------------------------|
----------------------------------|----------------------------------|
--3-3-3-3-8-3-3-3-3-5-7-3-8-3-7-5-|--7-7-7-7-7-7-7-7-2-3-2-3-2-0-2-3-|


         PM PM PM PM PM PM                   
  S S E  S  S  T  T  S  S  S S E  S T T T T  
--------------------------------------------|
--------------------------------------------|
--7-5-7-------------------------------------|
--7-5-7--0--0--0--0--0--0-------------------|
--5-3-5--0--0--0--0--0--0--3-5-6--L-5-6-5-0-|
---------0--0--0--0--0--0-------------------|


     PM PM PM PM PM PM PM PM PM PM PM PM PM PM PM PM PM  
  E  S  S  T  T  S  S  S  S  S  T  T  S  S  S  T  T  S   
--------------------------------------------------------|
--------------------------------------------------------|
--3--3--3--3--3--3--3--3--------------------------------|
--3--3--3--3--3--3--3--3--------------------------------|
--1--1--1--1--1--1--1--1--0--0--4--4--0--4--4--7--7--4--|
--------------------------------------------------------|


         PM PM PM PM PM PM                   
  S S E  S  S  T  T  S  S  S S E  S T T T T  
--------------------------------------------|
--------------------------------------------|
--7-5-7-------------------------------------|
--7-5-7--0--0--0--0--0--0-------------------|
--5-3-5--0--0--0--0--0--0-------------------|
---------0--0--0--0--0--0--3-5-6--L-5-6-5-0-|


  PM PM PM PM PM PM PM PM PM PM PM PM PM PM PM PM PM PM  
  E  S  S  T  T  S  S  S  S  S  T  T  S  S  S  T  T  S   
--------------------------------------------------------|
--------------------------------------------------------|
--------------------------------------------------------|
--1--1--1--1--1--1--1--1--0--0--1--1--0-----------------|
--1--1--1--1--1--1--1--1--0--0--1--1--0--4--4--7--7--4--|
--1--1--1--1--1--1--1--1--0--0--1--1--0-----------------|


         PM PM PM PM PM PM                     
  S S E  S  S  T  T  S  S  S S  E  S T  T T T  
----------------------------------------------|
----------------------------------------------|
----------------------------------------------|
---------0--0--0--0--0--0---------------------|
--8-7-8--0--0--0--0--0--0--7-8-10--L-8-10-8-7-|
---------0--0--0--0--0--0---------------------|


     PM PM PM PM PM PM PM PM PM PM PM PM PM PM  PM PMPM  
  E  S  S  T  T  S  S  S  S  S  T  T  S  S  S   T  T S   
--------------------------------------------------------|
--------------------------------------------------------|
--------------------------------------------------------|
--------------------------------------------------------|
--5--5--5--5--5--5--5--5--4--4--7--7--4--7--7--10-10-7--|
--------------------------------------------------------|


         PM PM PM PM PM PM                   
  S S E  S  S  T  T  S  S  S S E  S T T T T  
--------------------------------------------|
--------------------------------------------|
--------------------------------------------|
---------0--0--0--0--0--0-------------------|
--8-7-8--0--0--0--0--0--0-------------------|
---------0--0--0--0--0--0--3-5-6--L-5-6-5-0-|


  PM PM PM PM PM PM PM PM PM PM PM PM PM PM PM  PM PMPM  
  E  S  S  T  T  S  S  S  S  S  T  T  S  S  S   T  T S   
--------------------------------------------------------|
--------------------------------------------------------|
--------------------------------------------------------|
--1--1--1--1--1--1--1--1--0--0--1--1--0-----------------|
--1--1--1--1--1--1--1--1--0--0--1--1--0--7--7--10-10-7--|
--1--1--1--1--1--1--1--1--0--0--1--1--0-----------------|


  PM PM PM PM PM PM PM PM PM PM PM PM PM PM PM PM PM PM PM PM PM PM PM PM  
  T  T  S  T  T  S  T  T  S  T  T  S  T  T  S  T  T  S  T  T  S  T  T  S   
--------------------------------------------------------------------------|
--------------------------------------------------------------------------|
--------------------------------------------------------------------------|
--0--0--0--0--0--0--0--0--0--0--0--0--3--3--3--3--3--3--3--3--3--3--3--3--|
--0--0--0--0--0--0--0--0--0--0--0--0--3--3--3--3--3--3--3--3--3--3--3--3--|
--0--0--0--0--0--0--0--0--0--0--0--0--3--3--3--3--3--3--3--3--3--3--3--3--|


  PM PM PM PM PM PM PM PM PM PM PM PM                                  
  T  T  S  T  T  S  T  T  S  T  T  S  T T T T T T T T T T T T T T T T  
----------------------------------------------------------------------|
----------------------------------------------------------------------|
----------------------------------------------------------------------|
--2--2--2--2--2--2--2--2--2--2--2--2----------------------------------|
--2--2--2--2--2--2--2--2--2--2--2--2--1-1-1-1-0-0-0-0-4-4-4-4-1-1-1-1-|
--2--2--2--2--2--2--2--2--2--2--2--2----------------------------------|


  PM PM PM PM PM PM PM PM PM PM PM PM PM PM PM PM PM PM PM PM PM PM PM PM  
  T  T  S  T  T  S  T  T  S  T  T  S  T  T  S  T  T  S  T  T  S  T  T  S   
--------------------------------------------------------------------------|
--------------------------------------------------------------------------|
--------------------------------------------------------------------------|
--0--0--0--0--0--0--0--0--0--0--0--0--3--3--3--3--3--3--3--3--3--3--3--3--|
--0--0--0--0--0--0--0--0--0--0--0--0--3--3--3--3--3--3--3--3--3--3--3--3--|
--0--0--0--0--0--0--0--0--0--0--0--0--3--3--3--3--3--3--3--3--3--3--3--3--|


  PM PM PM PM PM PM PM PM PM PM PM PM                                  
  T  T  S  T  T  S  T  T  S  T  T  S  T T T T T T T T T T T T T T T T  
----------------------------------------------------------------------|
----------------------------------------------------------------------|
----------------------------------------------------------------------|
--2--2--2--2--2--2--2--2--2--2--2--2----------------------------------|
--2--2--2--2--2--2--2--2--2--2--2--2--1-1-1-1-0-0-0-0-4-4-4-4-1-1-1-1-|
--2--2--2--2--2--2--2--2--2--2--2--2----------------------------------|


  T T T T T T T T T T T T T T T T T T T T T T T T T T T T T T T T  
------------------------------------------------------------------|
------------------------------------------------------------------|
------------------------------------------------------------------|
------------------------------------------------------------------|
------------------------------------------------------------------|
--0-0-0-0-0-0-0-0-0-0-0-0-0-0-0-0-3-3-3-3-3-3-3-3-3-3-3-3-3-3-3-3-|


  T T T T T T T T T T T T T T T T T T T T T T T T T T T T T T T T  
------------------------------------------------------------------|
------------------------------------------------------------------|
------------------------------------------------------------------|
------------------------------------------------------------------|
----------------------------------1-1-1-1-0-0-0-0-4-4-4-4-1-1-1-1-|
--2-2-2-2-2-2-2-2-2-2-2-2-2-2-2-2---------------------------------|


  T T T T T T T T T T T T T T T T T T T T T T T T T T T T T T T T  
------------------------------------------------------------------|
------------------------------------------------------------------|
------------------------------------------------------------------|
------------------------------------------------------------------|
------------------------------------------------------------------|
--0-0-0-0-0-0-0-0-0-0-0-0-0-0-0-0-3-3-3-3-3-3-3-3-3-3-3-3-3-3-3-3-|


                                                               |--3--|  
  T T T T T T T T T T T T T T T T T T T T T T T T T T T T T T  T  T  T  
-----------------------------------------------------------------------|
--------------------------------------------------------------------14-|
-----------------------------------------------------------------15----|
--------------------------------------------------------------17-------|
----------------------------------1-1-1-1-0-0-0-0-4-4-4-4--------------|
--2-2-2-2-2-2-2-2-2-2-2-2-2-2-2-2--------------------------------------|


         |--3--|  |--3--|                        
   S  S  S  S  S  S  S  S  T  T  T  T  H         
--15-15-12----------------------------13--------|
-----------14----------------14-15-17-----------|
--------------15----------15--------------------|
-----------------15-14-17-----------------------|
------------------------------------------------|
------------------------------------------------|


  S S S S S S S S S S S S S S S S    S S S S S S S S S S S S S S S S  
----------------------------------|----------------------------------|
----------------------------------|----------------------------------|
----------------------------------|----------------------------------|
----------------------------------|----------------------------------|
----------------------------------|----------------------------------|
--0-0-0-0-8-0-0-0-0-3-7-0-8-8-8-8-|--3-3-3-3-8-3-3-3-3-5-7-3-8-3-7-5-|


  S S S S S S S S S S S S S S S S    S S S S S S S S S S S S S S S S  
----------------------------------|----------------------------------|
----------------------------------|----------------------------------|
----------------------------------|----------------------------------|
----------------------------------|----------------------------------|
----------------------------------|----------------------------------|
--7-7-7-7-7-7-7-7-2-3-2-3-2-0-2-3-|--0-0-0-0-8-0-0-0-0-3-7-0-8-0-7-3-|


  S S S S S S S S S S S S S S S S    S S S S S S S S S S S S S S S S  
----------------------------------|----------------------------------|
----------------------------------|----------------------------------|
----------------------------------|----------------------------------|
----------------------------------|----------------------------------|
----------------------------------|----------------------------------|
--0-0-0-0-8-0-0-0-0-3-7-0-8-8-8-8-|--3-3-3-3-8-3-3-3-3-5-7-3-8-3-7-5-|


  S S S S S S S S S S S S S S S S    S S S S S S S S H          
----------------------------------|----------------------------|
----------------------------------|----------------------------|
----------------------------------|----------------------------|
----------------------------------|----------------------------|
----------------------------------|----------------------------|
--7-7-7-7-7-7-7-7-2-3-2-3-2-0-2---|--0-3-2-0-2-0-3-0-3b--------|


     PM PM PM PM PM PM                                   
  E  S  S  S  S  S  S  T T T T T T T T  T T T T T T T T  
--------------------------------------------------------|
--------------------------------------------------------|
--------------------------------------------------------|
--0--0--0--0--0--0--0-----------------------------------|
--0--0--0--0--0--0--0-----------------------------------|
--0--0--0--0--0--0--0--8-0-0-0-7-0-0-0-10-0-0-0-8-0-0-0-|


     PM PM PM PM PM PM    PM PM         
  E  S  S  S  S  S  S  E  S  S  E  S S  
---------------------------------------|
---------------------------------------|
---------------------------------------|
--0--0--0--0--0--0--0--0--0--0--1--0-1-|
--0--0--0--0--0--0--0--0--0--0--1--0-1-|
--0--0--0--0--0--0--0--0--0--0--1--0-1-|


     PM PM PM PM PM PM PM PM PM PM PM PM PM PM PM PM   
  E  S  S  S  S  S  S  S  S  T  T  S  S  S  T  T  S    
-----------------------------------------------------||
-----------------------------------------------------||
-----------------------------------------------------||
--0--0--0--0--0--0--0--0--0--0--0--0--0--0--0--0--0--||
--0--0--0--0--0--0--0--0--0--0--0--0--0--0--0--0--0--||
--0--0--0--0--0--0--0--0--0--0--0--0--0--0--0--0--0--||


Guitar 2


     PM PM PM PM PM PM PM PM PM    PM PM PM         
  E  T  T  S  T  T  S  T  T  S  E  T  T  S  E  S S  
---------------------------------------------------|
---------------------------------------------------|
--7-----------------------------7-----------8--7-8-|
--7--0--0--0--0--0--0--0--0--0--7--0--0--0--8--7-8-|
--5--0--0--0--0--0--0--0--0--0--5--0--0--0--6--5-6-|
-----0--0--0--0--0--0--0--0--0-----0--0--0---------|


     PM PM PM PM PM PM PM PM PM                                   
  E  T  T  S  T  T  S  T  T  S  T T T T T T T T  T T T T T T T T  
-----------------------------------------------------------------|
-----------------------------------------------------------------|
--7--------------------------------------------------------------|
--7--0--0--0--0--0--0--0--0--0-----------------------------------|
--5--0--0--0--0--0--0--0--0--0-----------------------------------|
-----0--0--0--0--0--0--0--0--0--8-0-0-0-7-0-0-0-10-0-0-0-8-0-0-0-|


     PM PM PM PM PM PM PM PM PM    PM PM       PM    
  E  T  T  S  T  T  S  T  T  S  E  S  S  T T S S  S  
----------------------------------------------------|
----------------------------------------------------|
--7-----------------------------5-------------------|
--7--0--0--0--0--0--0--0--0--0--5--0--0-------------|
--5--0--0--0--0--0--0--0--0--0--3--0--0-----------0-|
-----0--0--0--0--0--0--0--0--0-----0--0--0-1-0-0----|


     PM PM PM PM PM PM PM PM PM PM PM PM PM PM PM PM PM PM PM  
  E  S  S  T  T  S  S  S  T  T  S  T  T  S  T  T  S  T  T  S   
--------------------------------------------------------------|
--------------------------------------------------------------|
--------------------------------------------------------------|
--0--0--0--0--0--0--0--0--0--0--0--0--0--0--0--0--0--0--0--0--|
--0--0--0--0--0--0--0--0--0--0--0--0--0--0--0--0--0--0--0--0--|
--0--0--0--0--0--0--0--0--0--0--0--0--0--0--0--0--0--0--0--0--|


     PM PM PM PM PM PM PM PM PM    PM PM PM         
  E  T  T  S  T  T  S  T  T  S  E  T  T  S  E  S S  
---------------------------------------------------|
---------------------------------------------------|
--7-----------------------------7-----------8--7-8-|
--7--0--0--0--0--0--0--0--0--0--7--0--0--0--8--7-8-|
--5--0--0--0--0--0--0--0--0--0--5--0--0--0--6--5-6-|
-----0--0--0--0--0--0--0--0--0-----0--0--0---------|


     PM PM PM PM PM PM PM PM PM                                   
  E  T  T  S  T  T  S  T  T  S  T T T T T T T T  T T T T T T T T  
-----------------------------------------------------------------|
-----------------------------------------------------------------|
--7--------------------------------------------------------------|
--7--0--0--0--0--0--0--0--0--0-----------------------------------|
--5--0--0--0--0--0--0--0--0--0-----------------------------------|
-----0--0--0--0--0--0--0--0--0--8-0-0-0-7-0-0-0-10-0-0-0-8-0-0-0-|


     PM PM PM PM PM PM PM PM PM    PM PM       PM    
  E  T  T  S  T  T  S  T  T  S  E  S  S  T T S S  S  
----------------------------------------------------|
----------------------------------------------------|
--7-----------------------------5-------------------|
--7--0--0--0--0--0--0--0--0--0--5--0--0-------------|
--5--0--0--0--0--0--0--0--0--0--3--0--0-----------0-|
-----0--0--0--0--0--0--0--0--0-----0--0--0-1-0-0----|


                           Pickslide                                          
     PM PM PM PM PM PM PM                                                     
                           |------3-----|  |--3--|  |--3--|  |--3--|          
  E  S  S  T  T  S  S  S   T         T  T  T  T  T  T  T  T  T  T  T   Q      
--------------------------24--------23-22-21-20-19-18-17-16-15-14-13---------|
--------------------------24--------23-22-21-20-19-18-17-16-15-14-13---------|
-----------------------------------------------------------------------------|
--0--0--0--0--0--0--0--0---------------------------------------------/12\----|
--0--0--0--0--0--0--0--0---------------------------------------------/12\----|
--0--0--0--0--0--0--0--0---------------------------------------------/12\----|


    PM PM   PM PM   PM   PM   PM   PM   PM  
  S S  S  S S  S  S S  S S  S S  S S  S S   
-------------------------------------------|
-------------------------------------------|
-------------------------------------------|
-------------------------------------------|
--5-------5-------5----8----7----5----7----|
----0--0----0--0----0----0----0----0----0--|


    PM PM   PM PM   PM                    
  S S  S  S S  S  S S  T T S S S S S S S  
-----------------------------------------|
-----------------------------------------|
-----------------------------------------|
-----------------------------------------|
--4-------4-------4----7-8-7-5-7-5-4-5-4-|
----0--0----0--0----0--------------------|


    PM PM   PM PM   PM   PM   PM   PM   PM  
  S S  S  S S  S  S S  S S  S S  S S  S S   
-------------------------------------------|
-------------------------------------------|
-------------------------------------------|
-------------------------------------------|
--5-------5-------5----8----7----5----7----|
----0--0----0--0----0----0----0----0----0--|


    PM PM   PM PM   PM                    
  S S  S  S S  S  S S  T T S S S S S S S  
-----------------------------------------|
-----------------------------------------|
-----------------------------------------|
-----------------------------------------|
--4-------4-------4------------------5---|
----0--0----0--0----0--7-8-7-5-7-5-3---2-|


    PM PM   PM PM   PM   PM   PM   PM   PM  
  S S  S  S S  S  S S  S S  S S  S S  S S   
-------------------------------------------|
-------------------------------------------|
-------------------------------------------|
-------------------------------------------|
--5-------5-------5----8----7----5----7----|
----0--0----0--0----0----0----0----0----0--|


    PM PM   PM PM   PM       PM   PM   PM    
  S S  S  S S  S  S S  T T S S  S S  S S  S  
--------------------------------------------|
--------------------------------------------|
--------------------------------------------|
--------------------------------------------|
--4-------4-------4----4-5-4----5----7----8-|
----0--0----0--0----0--------0----0----0----|


    PM PM   PM PM   PM   PM   PM   PM   PM  
  S S  S  S S  S  S S  S S  S S  S S  S S   
-------------------------------------------|
-------------------------------------------|
-------------------------------------------|
-------------------------------------------|
--5-------5-------5----8----7----5----7----|
----0--0----0--0----0----0----0----0----0--|


    PM PM   PM PM   PM                    
  S S  S  S S  S  S S  T T S S S S S S S  
-----------------------------------------|
-----------------------------------------|
-----------------------------------------|
-----------------------------------------|
--4-------4-------4------------------5---|
----0--0----0--0----0--7-8-7-5-7-5-3---2-|


  PM PM PM   PM PM PM PM PM PM PM PM PM PM   PM PM PM PM PM PM PM  
  T  T  S  S S  T  T  S  T  T  S  T  T  S  S S  T  T  S  T  T  S   
------------------------------------------------------------------|
------------------------------------------------------------------|
------------------------------------------------------------------|
--0--0--0----0--0--0--0--0--0--0--0--0--0----0--0--0--0--0--0--0--|
--0--0--0----0--0--0--0--0--0--0--0--0--0----0--0--0--0--0--0--0--|
--0--0--0----0--0--0--0--0--0--0--0--0--0----0--0--0--0--0--0--0--|


  PM PM PM   PM PM PM PM PM PM PM                    
  T  T  S  S S  T  T  S  T  T  S  T T S S S S S S S  
----------------------------------------------------|
----------------------------------------------------|
----------------------------------------------------|
--0--0--0----0--0--0--0--0--0--0--------------------|
--0--0--0----0--0--0--0--0--0--0----------------5---|
--0--0--0----0--0--0--0--0--0--0--7-8-7-5-7-5-3---2-|


  PM PM PM PM PM PM PM PM PM PM PM PM PM PM PM PM PM PM PM PM PM PM PM PM PM PM 
  T  T  T  T  T  T  T  T  T  T  T  T  T  T  T  T  T  T  T  T  T  T  T  T  T  T  
--------------------------------------------------------------------------------
--------------------------------------------------------------------------------
--------------------------------------------------------------------------------
--------------------------------------------------------------------------------
--------------------------------------------------------------------------------
--3--3--3--3--3--3--3--3--3--3--3--3--3--3--3--3--2--2--2--2--2--2--2--2--2--2--


    PM PM PM PM PM PM PM PM   PM PM   PH                                        
  S S  S  S  S  S  S  S  S  S S  S    Q        S S S S S S S S S S S S S S S S  
--------------------------------------------|----------------------------------|
--------------------------------------------|----------------------------------|
--------------------------------------------|----------------------------------|
--0-0--0--0--0--0--0--0--0----0--0----------|----------------------------------|
--0-0--0--0--0--0--0--0--0----0--0----------|----------------------------------|
--0-0--0--0--0--0--0--0--0--2-0--0--<>3~----|--0-0-0-0-8-0-0-0-0-3-7-0-8-0-7-3-|


  S S S S S S S S S S S S S S S S    S S S S S S S S S S S S S S S S  
----------------------------------|----------------------------------|
----------------------------------|----------------------------------|
----------------------------------|----------------------------------|
----------------------------------|----------------------------------|
----------------------------------|----------------------------------|
--0-0-0-0-8-0-0-0-0-3-7-0-8-8-8-8-|--3-3-3-3-8-3-3-3-3-5-7-3-8-3-7-5-|


  S S S S S S S S S S S S S S S S    S S S S S S S S S S S S S S S S  
----------------------------------|----------------------------------|
----------------------------------|----------------------------------|
----------------------------------|----------------------------------|
----------------------------------|----------------------------------|
----------------------------------|----------------------------------|
--7-7-7-7-7-7-7-7-2-3-2-3-2-0-2-3-|--0-0-0-0-8-0-0-0-0-3-7-0-8-0-7-3-|


  S S S S S S S S S S S S S S S S    S S S S S S S S S S S S S S S S  
----------------------------------|----------------------------------|
----------------------------------|----------------------------------|
----------------------------------|----------------------------------|
----------------------------------|----------------------------------|
----------------------------------|----------------------------------|
--0-0-0-0-8-0-0-0-0-3-7-0-8-8-8-8-|--3-3-3-3-8-3-3-3-3-5-7-3-8-3-7-5-|


                                        PM PM PM PM PM PM    PM PM         
  S S S S S S S S S S S S S S S S    E  S  S  S  S  S  S  E  S  S  E  S S  
----------------------------------|---------------------------------------|
----------------------------------|---------------------------------------|
----------------------------------|---------------------------------------|
----------------------------------|--0--0--0--0--0--0--0--0--0--0--1--0-1-|
----------------------------------|--0--0--0--0--0--0--0--0--0--0--1--0-1-|
--7-7-7-7-7-7-7-7-2-3-2-3-2-0-2-3-|--0--0--0--0--0--0--0--0--0--0--1--0-1-|


     PM PM PM PM PM PM                                   
  E  S  S  S  S  S  S  T T T T T T T T  T T T T T T T T  
--------------------------------------------------------|
--------------------------------------------------------|
--------------------------------------------------------|
--0--0--0--0--0--0--0-----------------------------------|
--0--0--0--0--0--0--0-----------------------------------|
--0--0--0--0--0--0--0--8-0-0-0-7-0-0-0-10-0-0-0-8-0-0-0-|


     PM PM PM PM PM PM    PM PM         
  E  S  S  S  S  S  S  E  S  S  E  S S  
---------------------------------------|
---------------------------------------|
---------------------------------------|
--0--0--0--0--0--0--0--0--0--0--1--0-1-|
--0--0--0--0--0--0--0--0--0--0--1--0-1-|
--0--0--0--0--0--0--0--0--0--0--1--0-1-|


     PM PM PM PM PM PM PM PM PM PM PM PM PM PM PM PM  
  E  S  S  S  S  S  S  S  S  T  T  S  S  S  T  T  S   
-----------------------------------------------------|
-----------------------------------------------------|
-----------------------------------------------------|
--0--0--0--0--0--0--0--0--0--0--0--0--0--0--0--0--0--|
--0--0--0--0--0--0--0--0--0--0--0--0--0--0--0--0--0--|
--0--0--0--0--0--0--0--0--0--0--0--0--0--0--0--0--0--|


    PM PM   PM PM   PM   PM   PM   PM   PM  
  S S  S  S S  S  S S  S S  S S  S S  S S   
-------------------------------------------|
-------------------------------------------|
-------------------------------------------|
-------------------------------------------|
--5-------5-------5----8----7----5----7----|
----0--0----0--0----0----0----0----0----0--|


    PM PM   PM PM   PM                    
  S S  S  S S  S  S S  T T S S S S S S S  
-----------------------------------------|
-----------------------------------------|
-----------------------------------------|
-----------------------------------------|
--4-------4-------4----7-8-7-5-7-5-4-5-4-|
----0--0----0--0----0--------------------|


    PM PM   PM PM   PM   PM   PM   PM   PM  
  S S  S  S S  S  S S  S S  S S  S S  S S   
-------------------------------------------|
-------------------------------------------|
-------------------------------------------|
-------------------------------------------|
--5-------5-------5----8----7----5----7----|
----0--0----0--0----0----0----0----0----0--|


    PM PM   PM PM   PM                    
  S S  S  S S  S  S S  T T S S S S S S S  
-----------------------------------------|
-----------------------------------------|
-----------------------------------------|
-----------------------------------------|
--4-------4-------4------------------5---|
----0--0----0--0----0--7-8-7-5-7-5-3---2-|


    PM PM   PM PM   PM   PM   PM   PM    PM  
  S S  S  S S  S  S S  S S  S S  S S   S S   
--------------------------------------------|
--------------------------------------------|
--------------------------------------------|
--------------------------------------------|
--5-------5-------5----8----7----8----10----|
----0--0----0--0----0----0----0----0-----0--|


     PM PM    PM PM    PM                           
   S S  S   S S  S   S S   T  T  S  S  S  S S  S S  
---------------------------------------------------|
---------------------------------------------------|
---------------------------------------------------|
---------------------------------------------------|
--12-------12-------12----12-13-12-10-12-10-8-10-8-|
-----0--0-----0--0-----0---------------------------|


    PM PM   PM PM   PM    PM    PM   PM    PM  
  S S  S  S S  S  S S   S S   S S  S S   S S   
----------------------------------------------|
----------------------------------------------|
----------------------------------------------|
----------------------------------------------|
--8-------8-------8----12----10----8----10----|
----0--0----0--0----0-----0-----0----0-----0--|


    PM PM   PM PM   PM                    
  S S  S  S S  S  S S  T T S S S S S S S  
-----------------------------------------|
-----------------------------------------|
-----------------------------------------|
-----------------------------------------|
--7-------7-------7------------------5---|
----0--0----0--0----0--7-8-7-5-7-5-3---2-|


    PM PM   PM PM   PM PM   PM PM   PM   PM  
  S S  S  S S  S  S S  S  S S  S  S S  S S   
--------------------------------------------|
--------------------------------------------|
--------------------------------------------|
--3-------3-------3-------3-------3----3----|
----1--1----1--1----1--1----1--1----1----1--|
--------------------------------------------|


    PM PM   PM PM   PM                                                       
  S S  S  S S  S  S S  T T S S S S S S S    S S S S S S S S S S S S S S S S  
-----------------------------------------|----------------------------------|
-----------------------------------------|----------------------------------|
-----------------------------------------|----------------------------------|
--2-------2-------2----------------------|----------------------------------|
----1--1----1--1----1--7-8-7-5-7-8-----5-|----------------------------------|
-----------------------------------5-8---|--0-0-0-0-8-0-0-0-0-3-7-0-8-0-7-3-|


  S S S S S S S S S S S S S S S S    S S S S S S S S S S S S S S S S  
----------------------------------|----------------------------------|
----------------------------------|----------------------------------|
----------------------------------|----------------------------------|
----------------------------------|----------------------------------|
----------------------------------|----------------------------------|
--0-0-0-0-8-0-0-0-0-3-7-0-8-8-8-8-|--3-3-3-3-8-3-3-3-3-5-7-3-8-3-7-5-|


  S S S S S S S S S S S S S S S S    S S S S S S S S S S S S S S S S  
----------------------------------|----------------------------------|
----------------------------------|----------------------------------|
----------------------------------|----------------------------------|
----------------------------------|----------------------------------|
----------------------------------|----------------------------------|
--7-7-7-7-7-7-7-7-2-3-2-3-2-0-2-3-|--0-0-0-0-8-0-0-0-0-3-7-0-8-0-7-3-|


  S S S S S S S S S S S S S S S S    S S S S S S S S S S S S S S S S  
----------------------------------|----------------------------------|
----------------------------------|----------------------------------|
----------------------------------|----------------------------------|
----------------------------------|----------------------------------|
----------------------------------|----------------------------------|
--0-0-0-0-8-0-0-0-0-3-7-0-8-8-8-8-|--3-3-3-3-8-3-3-3-3-5-7-3-8-3-7-5-|


                                            PM PM PM PM PM PM                   
  S S S S S S S S S S S S S S S S    S S E  S  S  T  T  S  S  S S E  S T T T T  
----------------------------------|--------------------------------------------|
----------------------------------|--------------------------------------------|
----------------------------------|--7-5-7-------------------------------------|
----------------------------------|--7-5-7--0--0--0--0--0--0-------------------|
----------------------------------|--5-3-5--0--0--0--0--0--0--3-5-6--L-5-6-5-0-|
--7-7-7-7-7-7-7-7-2-3-2-3-2-0-2-3-|---------0--0--0--0--0--0-------------------|


     PM PM PM PM PM PM PM PM PM PM PM PM PM PM PM PM PM  
  E  S  S  T  T  S  S  S  S  S  T  T  S  S  S  T  T  S   
--------------------------------------------------------|
--------------------------------------------------------|
--3--3--3--3--3--3--3--3--------------------------------|
--3--3--3--3--3--3--3--3--------------------------------|
--1--1--1--1--1--1--1--1--0--0--4--4--0--4--4--7--7--4--|
--------------------------------------------------------|


         PM PM PM PM PM PM                   
  S S E  S  S  T  T  S  S  S S E  S T T T T  
--------------------------------------------|
--------------------------------------------|
--7-5-7-------------------------------------|
--7-5-7--0--0--0--0--0--0-------------------|
--5-3-5--0--0--0--0--0--0-------------------|
---------0--0--0--0--0--0--3-5-6--L-5-6-5-0-|


  PM PM PM PM PM PM PM PM PM PM PM PM PM PM PM PM PM PM  
  E  S  S  T  T  S  S  S  S  S  T  T  S  S  S  T  T  S   
--------------------------------------------------------|
--------------------------------------------------------|
--------------------------------------------------------|
--1--1--1--1--1--1--1--1--0--0--1--1--0-----------------|
--1--1--1--1--1--1--1--1--0--0--1--1--0--4--4--7--7--4--|
--1--1--1--1--1--1--1--1--0--0--1--1--0-----------------|


         PM PM PM PM PM PM                   
  S S E  S  S  T  T  S  S  S S E  S T T T T  
--------------------------------------------|
--------------------------------------------|
--7-5-7-------------------------------------|
--7-5-7--0--0--0--0--0--0-------------------|
--5-3-5--0--0--0--0--0--0--3-5-6--L-5-6-5-0-|
---------0--0--0--0--0--0-------------------|


     PM PM PM PM PM PM PM PM PM PM PM PM PM PM PM PM PM  
  E  S  S  T  T  S  S  S  S  S  T  T  S  S  S  T  T  S   
--------------------------------------------------------|
--------------------------------------------------------|
--3--3--3--3--3--3--3--3--------------------------------|
--3--3--3--3--3--3--3--3--------------------------------|
--1--1--1--1--1--1--1--1--0--0--4--4--0--4--4--7--7--4--|
--------------------------------------------------------|


         PM PM PM PM PM PM                   
  S S E  S  S  T  T  S  S  S S E  S T T T T  
--------------------------------------------|
--------------------------------------------|
--7-5-7-------------------------------------|
--7-5-7--0--0--0--0--0--0-------------------|
--5-3-5--0--0--0--0--0--0-------------------|
---------0--0--0--0--0--0--3-5-6--L-5-6-5-0-|


  PM PM PM PM PM PM PM PM PM PM PM PM PM PM PM PM PM PM  
  E  S  S  T  T  S  S  S  S  S  T  T  S  S  S  T  T  S   
--------------------------------------------------------|
--------------------------------------------------------|
--------------------------------------------------------|
--1--1--1--1--1--1--1--1--0--0--1--1--0-----------------|
--1--1--1--1--1--1--1--1--0--0--1--1--0--4--4--7--7--4--|
--1--1--1--1--1--1--1--1--0--0--1--1--0-----------------|


  PM PM PM PM PM PM PM PM PM PM PM PM PM PM PM PM PM PM PM PM PM PM PM PM  
  T  T  S  T  T  S  T  T  S  T  T  S  T  T  S  T  T  S  T  T  S  T  T  S   
--------------------------------------------------------------------------|
--------------------------------------------------------------------------|
--------------------------------------------------------------------------|
--0--0--0--0--0--0--0--0--0--0--0--0--3--3--3--3--3--3--3--3--3--3--3--3--|
--0--0--0--0--0--0--0--0--0--0--0--0--3--3--3--3--3--3--3--3--3--3--3--3--|
--0--0--0--0--0--0--0--0--0--0--0--0--3--3--3--3--3--3--3--3--3--3--3--3--|


  PM PM PM PM PM PM PM PM PM PM PM PM                                  
  T  T  S  T  T  S  T  T  S  T  T  S  T T T T T T T T T T T T T T T T  
----------------------------------------------------------------------|
----------------------------------------------------------------------|
----------------------------------------------------------------------|
--2--2--2--2--2--2--2--2--2--2--2--2----------------------------------|
--2--2--2--2--2--2--2--2--2--2--2--2--1-1-1-1-0-0-0-0-4-4-4-4-1-1-1-1-|
--2--2--2--2--2--2--2--2--2--2--2--2----------------------------------|


  PM PM PM PM PM PM PM PM PM PM PM PM PM PM PM PM PM PM PM PM PM PM PM PM  
  T  T  S  T  T  S  T  T  S  T  T  S  T  T  S  T  T  S  T  T  S  T  T  S   
--------------------------------------------------------------------------|
--------------------------------------------------------------------------|
--------------------------------------------------------------------------|
--0--0--0--0--0--0--0--0--0--0--0--0--3--3--3--3--3--3--3--3--3--3--3--3--|
--0--0--0--0--0--0--0--0--0--0--0--0--3--3--3--3--3--3--3--3--3--3--3--3--|
--0--0--0--0--0--0--0--0--0--0--0--0--3--3--3--3--3--3--3--3--3--3--3--3--|


  PM PM PM PM PM PM PM PM PM PM PM PM                                  
  T  T  S  T  T  S  T  T  S  T  T  S  T T T T T T T T T T T T T T T T  
----------------------------------------------------------------------|
----------------------------------------------------------------------|
----------------------------------------------------------------------|
--2--2--2--2--2--2--2--2--2--2--2--2----------------------------------|
--2--2--2--2--2--2--2--2--2--2--2--2--1-1-1-1-0-0-0-0-4-4-4-4-1-1-1-1-|
--2--2--2--2--2--2--2--2--2--2--2--2----------------------------------|


  T T T T T T T T T T T T T T T T T T T T T T T T T T T T T T T T  
------------------------------------------------------------------|
------------------------------------------------------------------|
------------------------------------------------------------------|
------------------------------------------------------------------|
------------------------------------------------------------------|
--0-0-0-0-0-0-0-0-0-0-0-0-0-0-0-0-3-3-3-3-3-3-3-3-3-3-3-3-3-3-3-3-|


  T T T T T T T T T T T T T T T T T T T T T T T T T T T T T T T T  
------------------------------------------------------------------|
------------------------------------------------------------------|
------------------------------------------------------------------|
------------------------------------------------------------------|
----------------------------------1-1-1-1-0-0-0-0-4-4-4-4-1-1-1-1-|
--2-2-2-2-2-2-2-2-2-2-2-2-2-2-2-2---------------------------------|


  T T T T T T T T T T T T T T T T T T T T T T T T T T T T T T T T  
------------------------------------------------------------------|
------------------------------------------------------------------|
------------------------------------------------------------------|
------------------------------------------------------------------|
------------------------------------------------------------------|
--0-0-0-0-0-0-0-0-0-0-0-0-0-0-0-0-3-3-3-3-3-3-3-3-3-3-3-3-3-3-3-3-|


                                                               |--3--|  
  T T T T T T T T T T T T T T T T T T T T T T T T T T T T T T  T  T  T  
-----------------------------------------------------------------------|
--------------------------------------------------------------------17-|
-----------------------------------------------------------------18----|
--------------------------------------------------------------20-------|
----------------------------------1-1-1-1-0-0-0-0-4-4-4-4--------------|
--2-2-2-2-2-2-2-2-2-2-2-2-2-2-2-2--------------------------------------|


         |--3--|  |--3--|                        
   S  S  S  S  S  S  S  S  T  T  T  T  H         
--18-18-15----------------------------17--------|
-----------17----------------17-18-20-----------|
--------------18----------18--------------------|
-----------------18-17-20-----------------------|
------------------------------------------------|
------------------------------------------------|


  S S S S S S S S S S S S S S S S    S S S S S S S S S S S S S S S S  
----------------------------------|----------------------------------|
----------------------------------|----------------------------------|
----------------------------------|----------------------------------|
----------------------------------|----------------------------------|
----------------------------------|----------------------------------|
--0-0-0-0-8-0-0-0-0-3-7-0-8-8-8-8-|--3-3-3-3-8-3-3-3-3-5-7-3-8-3-7-5-|


  S S S S S S S S S S S S S S S S    S S S S S S S S S S S S S S S S  
----------------------------------|----------------------------------|
----------------------------------|----------------------------------|
----------------------------------|----------------------------------|
----------------------------------|----------------------------------|
----------------------------------|----------------------------------|
--7-7-7-7-7-7-7-7-2-3-2-3-2-0-2-3-|--0-0-0-0-8-0-0-0-0-3-7-0-8-0-7-3-|


  S S S S S S S S S S S S S S S S    S S S S S S S S S S S S S S S S  
----------------------------------|----------------------------------|
----------------------------------|----------------------------------|
----------------------------------|----------------------------------|
----------------------------------|----------------------------------|
----------------------------------|----------------------------------|
--0-0-0-0-8-0-0-0-0-3-7-0-8-8-8-8-|--3-3-3-3-8-3-3-3-3-5-7-3-8-3-7-5-|


  S S S S S S S S S S S S S S S S    S S S S S S S S H          
----------------------------------|----------------------------|
----------------------------------|----------------------------|
----------------------------------|----------------------------|
----------------------------------|----------------------------|
----------------------------------|----------------------------|
--7-7-7-7-7-7-7-7-2-3-2-3-2-0-2---|--0-3-2-0-2-0-3-0-3b--------|


     PM PM PM PM PM PM                                   
  E  S  S  S  S  S  S  T T T T T T T T  T T T T T T T T  
--------------------------------------------------------|
--------------------------------------------------------|
--------------------------------------------------------|
--0--0--0--0--0--0--0-----------------------------------|
--0--0--0--0--0--0--0-----------------------------------|
--0--0--0--0--0--0--0--8-0-0-0-7-0-0-0-10-0-0-0-8-0-0-0-|


     PM PM PM PM PM PM    PM PM         
  E  S  S  S  S  S  S  E  S  S  E  S S  
---------------------------------------|
---------------------------------------|
---------------------------------------|
--0--0--0--0--0--0--0--0--0--0--1--0-1-|
--0--0--0--0--0--0--0--0--0--0--1--0-1-|
--0--0--0--0--0--0--0--0--0--0--1--0-1-|


     PM PM PM PM PM PM PM PM PM PM PM PM PM PM PM PM   
  E  S  S  S  S  S  S  S  S  T  T  S  S  S  T  T  S    
-----------------------------------------------------||
-----------------------------------------------------||
-----------------------------------------------------||
--0--0--0--0--0--0--0--0--0--0--0--0--0--0--0--0--0--||
--0--0--0--0--0--0--0--0--0--0--0--0--0--0--0--0--0--||
--0--0--0--0--0--0--0--0--0--0--0--0--0--0--0--0--0--||


Duration Legend
---------------
W - whole
H - half
Q - quarter
E - 8th
S - 16th
T - 32nd
X - 64th
. - note dotted
|-n-|  - n-tuplets


Tablature Legend
----------------
L - tied note
x - dead note
g - grace note
(n) - ghost note
> - accentuded note
NH - natural harmonic
AH - artificial harmonic
TH - tapped harmonic
SH - semi harmonic
PH - pitch harmonic
h - hammer on
p - pull off
b - bend
br - bendRelease
pb - preBend
pbr - preBendRelease
brb - bendReleaseBend
\n/ - tremolo bar dip
\n - tremolo bar dive
-/n - tremolo bar Release up
/n\ - tremolo bar inverted dip
/n - tremolo bar return
-\n - tremolo bar Release down
S - shift slide
s - legato slide
/ -  slide into from below or out of upwards
\ -  slide into from above or out of downwards
~ - vibrato
W - wide vibrato
tr - trill
TP - tremolo picking
T - tapping
S - slap
P - pop
< - fade in
^ - brush up
v - brush down


That is all! I hope this helped, and be sure to check out my cover if you are
having problems with the tab. Thanks, oh and one last thing... ROCK OUT!!!!
Tap to rate this tab
# A B C D E F G H I J K L M N O P Q R S T U V W X Y Z