Song name
# A B C D E F G H I J K L M N O P Q R S T U V W X Y Z

Jakob Dylan - I Told You I Couldnt Stop tab

Help us improve GuitareTab! Take a short survey!
I Told You I Couldnt Stop guitar tabs

Hey guys,
Heres another Jakob Dylan song for all of you off of his new CD Seeing Things. I was
able to figure out the cleaver leads and riffs that he bases this song off of but there
still some chord progressions in between the chorus that I did not have a chance to get 
to. If anyone knows of these chords please post them so we can all learn them. Thanks
lot guys,
Enjoy!
Mike Lisnek

(Intro)
(Verse)
In my minds eye a plantation
In the clearing is a platform station
In the distance is a kingdom
Into the frontline is how Im coming
They say in war all is fair
I am headed to the field
In spite of my condition
(chorus)
Whatever you thought
Whatever you thought
You know I told you
That I couldnt stop
Whatever you thought
Whatever you thought
You know I told you
That I couldnt stop

Through the desert out to the sea
Weather beaten through all four seasons
There is love in my creation
Ive come back for all the right reasons
That aint your castle
Youre not a queen
That isnt yours
Youre so busy there protecting

Chorus

All this beautys sticky sweet
This naughty world is due for a good deed
Give me your poor tired huddled masses
Bring the head of a mule and my glasses
Sing that lonesome high melody
Rumble young man but rumble behind me

Intro
---------------------------------|
---------------------------------|
--------1/3-1--------------------|
-----1-3-----3-3----3-3/6-3/6-3--|
----3------------3-6-------------|
-1-1-----------------------------|

---------------------------------|
---------------------------------|
--------1/3-1--------------------|
-------------3-3----3-3/6-3/6-3--|
----3------------3-6-------------|
-1-1-----------------------------|


Chorus
X2
-----------------------------|
-----------------------------|
-3-3-3/5-3-3-----------------|
----------6-----3-3/6-3/6-3--|
-------------3-6-------------|
-----------------------------|

Verses
---------------------------------|
---------------------------------|
--------1/3-1--------------------|
-------------3-3----3-3/6-3/6-3--|
----3------------3-6-------------|
-1-1-----------------------------|
Related for I Told You I Couldnt Stop tab