Song name
# A B C D E F G H I J K L M N O P Q R S T U V W X Y Z

Jakoenigja - Aus Unserem Winterhaus chords

Highlighted       Show chord diagrams
-------------------------------------------------------------------------------
                             AUS UNSEREM WINTERHAUS - JaKönigJa
-------------------------------------------------------------------------------

http://www.jakoenigja.de/
http://www.discogs.com/JaKönigJa-JaKönigJa/master/112513

i got this from Bernd Begemann's "Bernd im Bademantel" 
http://www.youtube.com/watch?v=GNKZF7p7jSI&feature=youtu.be&t=10m18s



Fig.1
e|----------------------------------------------------|
B|----------------------------------------------------|
G|----------------------------------------------------|
D|-----5-----5-----5---------7---5---------5-2--------|
A|---5-----5-----5-------3-7---7---5---0-3-----3-0----|
E|-3-----3-----3-----3-5-------------7-------------3--|

Fig.2 
e|---------------------------------------------------|
B|---------------------------------------------------|
G|---------------------------------------------------|
D|-----5----5----5----5-----7-----7-----5-----5------|
A|---5----5----5----5-----7-----5-----3-----2--------|
E|-3----3----3----3-----5-----7-----5-----0----------|

VERSE Chords
e|-----------------|
B|-----------------|
G|-----------------|
D|-5--7--7--5--5---|
A|-5--7--5--3--2---|
E|-3--5--7--5--0---|

REFRAIN Chords
e|------------------|
B|--0----0----0-----|
G|--4----9----12----|
D|--5----10---10----|
A|--5----10---10----|
E|--3----8----8-----|


INTRO
Fig.1  x2

VERSE
v*from here chords picked->Fig.2*
G          Am D/B C/A  Em   G
was ich am all-er-lieb-sten mag               what i like the most
G          Am  D/B  C/A Em  G
an diesem hell-en Sonn-en- tag                on this light sunny day

v*from here Verse-Chords*
G           Am  D/B  C/A  Em  G
das ist mit dir ganz weit her-aus             is to go with you far out
G           Am D/B C/A Em  G         
aus unserem al-ten Win-ter-haus               of our old winterhouse

G           Am  D/B  C/A  Em     G
noch spielt der wind sein kühnes Spiel        still the wind plays his bold game
G           Am D/B C/A  Em  G
erzählt vom fe-gen viel zu  viel              speaks of sweeping far to much
G            Am   D/B C/A  Em   G
auch dass er ster-ben wird sagt er            that he will die he says too
G                Am    D/B C/A Em  G
und spricht doch schon von Wie-der-kehr       yet speaks already of his return


CHORUS (Refrain Chords)
G            C        G
die Luft ist leichter dann                    the air is lighter then
G            C      G
wenn jemand fliegen kann                      if someone can fly
G            C      
dann wär' es an der Zeit                      then it would be time

       v*from here like Fig.2*
G      Am  D/B  C/A  Em  G 
er sei bereit                                 he be ready
G      Am  D/B  C/A  Em  G
er sei bereit                                 he be ready

VERSE
v*from here chords picked->Fig.2*
G          Am  D/B C/A Em  G
was dieser Tag uns wie-der bringt             what this day brings back to us
G            Am  D/B C/A Em  G
ist dass der Him-mel lie-der singt            is the sky singing songs

v*from here Verse-Chords*
G          Am  D/B C/A Em  G
die ich verges-sen hab ge- glaubt             which i thought i had forgotten
G            Am  D/B C/A  Em  G
weil mir die Käl-te  sie  ge- raubt           because the cold stole them from me

G             Am  D/B C/A  Em  G
nun gehen wir auf das Feld hin-aus            we go out on the field now
G           Am  D/B C/A  Em  G
und treiben bun-te  Knos-pen aus              driving out colourful blossoms
G           Am  D/B C/A   Em   G
die brechen auf und schmü-cken aus            that break open and adorn

          v*from here like Fig.2*
G         Am  D/B  C/A  Em  G
das winterhaus                                the winterhouse
G         Am  D/B  C/A  Em G
das winterhaus                                the winterhouse


CHORUS (Refrain Chords)
G            C        G
die Luft ist leichter dann                    the air is lighter then
G            C      G
wenn jemand fliegen kann                      if someone can fly
G            C      
dann wär' es an der Zeit                      then it would be time

       v*from here like Fig.2*
G      Am  D/B  C/A  Em  G 
er sei bereit                                 he be ready
G      Am  D/B  C/A  Em  G
er sei bereit                                 he be ready


OUTRO (Verse chords)
G   Am  D/B  C/A  Em  G    x8

end with Fig.1
Tap to rate this tab
# A B C D E F G H I J K L M N O P Q R S T U V W X Y Z