Song name
# A B C D E F G H I J K L M N O P Q R S T U V W X Y Z

Jal - Main Mast Hoon tab

E ----------------|
B --------6-------|
G ----------------| ( X4 )
D ----------------|
A -----5----------|
E --6-------------|

E -------------------|
B -----------6-------|
G -------------------| ( X4 )
D --------0----------|
A -----5-------------|
E -------------------|


Mera ishq mera khuda hai
(A#) (Cm)

Duniya te ek mitthi sazaa hai
(F) (A#)

taitho doori ek gunaah hai
(F) (A#) (Cm)

teri qurbat vich jazaa hai
(F) (A#)

hooooo jhoole lal qalandar
(A#) (F)

main mast...
(A#) (Cm)

laj pal qalandar main mast
(A#) (F) (A#) (Cm)
Tap to rate this tab
# A B C D E F G H I J K L M N O P Q R S T U V W X Y Z