Song name
# A B C D E F G H I J K L M N O P Q R S T U V W X Y Z

Jal - Ik Aarzu chords

Highlighted       Show chord diagrams
Hi Guys!! This is My Second Tab
This is Wajeeh Amer
And The Song is Ik Aarzu! From Coke Studio 4!
Jal sung it very beautifully
the tabs are!!
subscribe me on Facebook: www.facebook.com/wajeehamer
FOR ANY QUERY! Ask me on My Email!! : bayofangel@gmail.com

--------------------------------------------------------------------------

CAPO: 4th fret!
(necessary)
Note: Tabs Are respective to the capo.


F#m
e|-----x-------|
B|-----x-------|
G|----------2--|
D|-----4-------|
A|--4----------|
E|-----x-------|




Asus2
e|-----x-------|
B|-----x-------|
G|-----2-------|
D|-----x-------|     [X MEANS BLOCK)["G" "A" Should be Plucked together]
A|-----0-------|
E|-----x-------|






E
e|-----x--------|
B|-----x--------|   [X means block] ["G" "A" should be plucked together]
G|-----1--------|
D|-----x--------|
A|-----2--------|
E|-----x--------|





        F#m  Asus2 Emajor
Ik Aarzu ..........

        F#m asus 2 Emajor
Hai Meri

{Rest }


       A     C#m
Zamana Chale Gaa

C#m    Bm     C#m
Sang hi sahi




Same Goes On



In second Phase!
(DAM MAST KALANDAR)
STRUM F#MINOR and Emajor Without any Blockage

F#m          E
Dam Mast Kalandar Mast Mast
--------
GO ON! LISTEN THE MUSIC! U WILL GET IT!!!!!!!
If any Prob!
Contact Me! : bayofangel@gmail.com
Subscribe Me : www.facebook.com/wajeehamer
------------------------------------
Tap to rate this tab
 
# A B C D E F G H I J K L M N O P Q R S T U V W X Y Z