Song name
# A B C D E F G H I J K L M N O P Q R S T U V W X Y Z

Jal - Dil Hare tab

Album Name: Pyaas
Singers: Goher Mumtaz
Band: Jal
Tabbed by: Sparsh Bhaisare AKA Lolybhaidon

p-pull-off
h-hammer on
s-slide(up or down)

INTRO:

e|------------------|---------------------------------|
B|--------3---------|-------1--------------0----------|
G|----0-----0---(2x)|---0----0--------0-----0---------|
D|------2----2------|-----2---2---------2----2--------|
A|--2---------------|-3------------3------------------|
E|------------------|---------------------------------|

e|------------------|------0--------------------------|
B|--------3---------|----------------------3----------|
G|----0-----0---(2x)|---0----0--------0-----0---------|
D|------2----2------|-----2---2---------2----2--------|
A|--2---------------|-3------------2------------------|
E|------------------|---------------------------------|

e|----------------------------------------------------|  |
B|------------4h6p4-----------------------------------|  |
G|--3--5-5-5--------5--3-5-5--1-3-3-------------------|  |
D|----------------------------------------------------|  \
A|----------------------------------------------------|   \
E|----------------------------------------------------|    \
                                                            }(2x)
e|----------------------------------------------------|    /
B|------------7h9p7-----------------------------------|   /
G|--3--5-5-5--------5--3-5-5--------------------------|  /
D|----------------------------------------------------|  |
A|----------------------------------------------------|  |
E|----------------------------------------------------|  |


CHORDS:
    Em                 C
Koi ote-ote se ore-ore kheenche mujhe
       G                 D
Jaise koi saaya door se jhaanke mujhe
      Em                 C
Kai aahatein aayein mujhe tere hone ki
          G               D
Rab se hai maanga maine tanhaai mein tujhe
     C        D         G
O Meri jaan, na jayegi tere bina
    C
O meri Jaan..
        Em                 C
Main hari, dil hari, dil hari hari hari
        Em                 C
Main hari, dil hari, dil hari hari hari
        Em                 C
Main wari main wari, dil hari hari hari

e|----------------------------------------------------|  
B|------------4h6p4-----------------------------------|  
G|--3--5-5-5--------5--3-5-5--1-3-3-------------------|  
D|----------------------------------------------------|  
A|----------------------------------------------------|   
E|----------------------------------------------------|
    
e|----------------------------------------------------|    
B|------------7h9p7-----------------------------------|   
G|--3--5-5-5--------5--3-5-5--------------------------|  
D|----------------------------------------------------|  
A|----------------------------------------------------|  
E|----------------------------------------------------| 

e|----------------------------------------------------|  
B|------------4h6p4-----------------------------------|  
G|--3--5-5-5--------5--3-5-5--1-3-3-------------------|  
D|----------------------------------------------------|  
A|----------------------------------------------------|   
E|----------------------------------------------------|

e|----------------------------------------------------|  
B|------------7h9p7-----------------------------------|  
G|--3--5-5-5--------5-3-------------------------------|  
D|----------------------------------------------------|  
A|----------------------------------------------------|   
E|----------------------------------------------------|

Then a small pause

e|----------------------------------------------------|  
B|------------4h6p4-----------------------------------|  
G|--3--5-5-5--------5--3-5-5--1-3-3-------------------|  
D|----------------------------------------------------|  
A|----------------------------------------------------|   
E|----------------------------------------------------|
    
e|----------------------------------------------------|  
B|------------7h9p7-----------------------------------|  
G|--3--5-5-5--------5--3-5-5--------------------------|  
D|----------------------------------------------------|  
A|----------------------------------------------------|   
E|----------------------------------------------------|

e|----------------------------------------------------|  
B|----------------------------------------------------|  
G|-3-5-{7(14x)}---------7s5--5s3----------------------|  
D|----------------------------------------------------|  
A|----------------------------------------------------|   
E|----------------------------------------------------|
  Em        C          G            D 
Taara jalta hai jaise, mera dil jal gaya
    C              D           G
Ae khuda, tu jaane dil, haal-e-dil mera..
    C
Na de sajaa..

         Em                  C    
Main hari, dil hari, dil haari haari haari..
         Em                  C
Main hari, dil hari, dil haari haari haari..

    Em                 C
Koi ote-ote se ore-ore kheenche mujhe
       G                 D
Jaise koi saaya door se jhaanke mujhe
      Em                 C
Kai aahatein aayein mujhe tere hone ki
          G               D
Rab se hai maanga maine tanhaai mein tujhe
     C        D         G
O Meri jaan, na jayegi tere bina
    C
O meri Jaan..
        Em                 C
Main hari, dil hari, dil hari hari hari
        Em                 C
Main hari, dil hari, dil hari hari hari
        Em                 C
Main wari main wari, dil hari hari hari


This was an attempt to find the tab by just listening...so probably it has some 
mistakes and corrections are welcone...but anyways i'm the first one to tab this 
so i'm happy... ;P
Tap to rate this tab
# A B C D E F G H I J K L M N O P Q R S T U V W X Y Z