Guitaretab - guitar tabs
Song name
# A B C D E F G H I J K L M N O P Q R S T U V W X Y Z
Home / J / Jal / Panchi tab

Jal - Panchi tab

----------------------------------------------------------------------------
                              Jal - Panchi
----------------------------------------------------------------------------

Tabbed By: Bilal
Email: luminousgreen@yahoo.com

e--------------------------------------------------------|
B--------------------------------------------------------|
G--7/9-9-9-9--7/9-9-7/9-9-7/9-9-7-5-4-5-4-7-2------------| X2
D--------------------------------------------------------|
A--------------------------------------------------------|
E--------------------------------------------------------|

e------------------------|
B------------------------|
G--7-5-4-2-4-5-----------|  X4
D------------------------|
A------------------------|
E------------------------|
[ Tab from: http://www.guitaretab.com/j/jal/53480.html ]
e-5-5-5-5-5-5-7-5-5-7-7-7-7-7-7-8-7-7/12-12-12-13-13-13-12-12-12-12-10-8-7-|
B--------------------------------------------------------------------------|
G--------------------------------------------------------------------------|
D--------------------------------------------------------------------------|
A--------------------------------------------------------------------------|
E--------------------------------------------------------------------------|

e-5------------------------------------------------------------------------|
B--------------------------------------------------------------------------|
G--------------------------------------------------------------------------|
D--------------------------------------------------------------------------|
A--------------------------------------------------------------------------|
E--------------------------------------------------------------------------|






                                                   do this 5 or 6 times more
                                                                       |
                                                                    |------|
e-5-5-5-5-5-5-7-5-5-7-7-7-7-7-7-8-7-7/12-12-12-13-13-13-12-12-12-12/15-15--|
B--------------------------------------------------------------------------|
G--------------------------------------------------------------------------|
D--------------------------------------------------------------------------|
A--------------------------------------------------------------------------|
E--------------------------------------------------------------------------|


Hope you like this. Any comments on my email. Please rate this.
Related for Panchi tab
Panchi chords by Jal