Song name
# A B C D E F G H I J K L M N O P Q R S T U V W X Y Z

Jal - Humain Itna Pyar Na Karo tab

Jal - Humain Itna Pyaar (Intro)

Tabbed By: Bilal
E mail: luminousgreen@yahoo.com

Intro

------------------------------|
------------------------------|
------------------------------|
-9~----9----9---9---9----9----|
-----7---7----7---7---7----7--|
------------------------------|

This comes in at 00:15
--------------------------------------------------------|
-10~--10-8~--8-7~--7-7-7-7-7-7-7-10-8-7-5-3-3-2-3h5-5-5-|
--------------------------------------------------------|
--------------------------------------------------------|
--------------------------------------------------------|
--------------------------------------------------------|

----------------------------|
-7-7-7-10-8-7-5-3-3-2-3-3h5-|
----------------------------|
----------------------------|
----------------------------|
----------------------------|

------------------------------------------------------|
-12-12-12-15-15-13-13-12-12-10-10-8-8-8-7-7-8-8h10-10-|
------------------------------------------------------|
------------------------------------------------------|
------------------------------------------------------|
------------------------------------------------------|

------------------------------------------------------------|
-12-12-12-15-15-13-13-12-12-10-10-8-8-8-7-7-8-8-8-8-10-10-8-|
------------------------------------------------------------|
------------------------------------------------------------|
------------------------------------------------------------|
------------------------------------------------------------|


The intro is really easy, but first listen to the song carefully, because lots of notes 
repeated lots of times, so you can easily get confused.
I'll give the solo and the rest of the song soon. Working on it.
Please rate it!
Ultimate Guitar Rocks!
Tap to rate this tab
 
# A B C D E F G H I J K L M N O P Q R S T U V W X Y Z