Song name
# A B C D E F G H I J K L M N O P Q R S T U V W X Y Z

Jal - Lamhey tab

e|------------------------------------------------|
B|--------------------------------------9-11-9-7--|
G|--8-6-6-8-4-4-8-6-6-8-4-4-8-6-6-8-4-4-----------|
D|------------------------------------------------|
A|------------------------------------------------|
E|------------------------------------------------|

|----------------------------------------------------------------------------|
 - -  -   -----------------------------9-11-12-14-12-11-9s11-9s7--9-9-11-12--|
|8-6-6-8-4-4-8-6-6-8-4-4-8-6-6-8-4-4-----------------------------------------|
|----------------------------------------------------------------------------|
|----------------------------------------------------------------------------|
|----------------------------------------------------------------------------|

e|----------------------------------------------10-11s12-11-11s12s11-10s11-|

that's the solo of jal's superb song lamhey. Pretty easy actually....
Tap to rate this tab
 
# A B C D E F G H I J K L M N O P Q R S T U V W X Y Z