Song name
# A B C D E F G H I J K L M N O P Q R S T U V W X Y Z

Jal - Woh Lamhay tab

Highlighted       Show chord diagrams
e|------------------------------------------14-11--|
B|-----------------------------12---11-9-----------|
G|---------------9---8-6--\------------------------|
D|----9---8-6--------------------------------------|
A|--6---6------6---6---------9----9-------9--------|
E|-------------------------------------------------|

ho ho hooooo                                   
e|-----------------------------------------------14-11--|
B|----------------------------------12---11-9-----------|
G|--------------------9---8-6--\------------------------|
D|---------9---8-6--------------------------------------|
A|--11/6-6---6------6---6---------9----9-------9--------|
E|------------------------------------------------------|

ho ho oooo ooo                                        hoo ho ho
e|-----------------------------------------------14-11-----|
B|----------------------------------12---11-9----------12--|
G|--------------------9---8-6--\---------------------------|
D|---------9---8-6-----------------------------------------|
A|--11/6-6---6------6---6---------9----9-------9-----------|
E|---------------------------------------------------------|

						 ho ho hhhooo
e|--------------------------------------------14----12----11-----|
B|----12---11-9-----12---11-9s11-----12---11-----11----11----11--|
G|--9----9--------9----9-----------9----9------------------------|
D|---------------------------------------------------------------|
A|---------------------------------------------------------------|
E|---------------------------------------------------------------|

						 ho ho hhhooo
e|--------------------------------------------14----12----11-----|
B|----12---11-9-----12---11-9s11-----12---11-----11----11----11--|
G|--9----9--------9----9-----------9----9------------------------|
D|---------------------------------------------------------------|
A|---------------------------------------------------------------|
E|---------------------------------------------------------------    

 After that you will play song which is based on three chords  
    {define Ab.             base-fret 4 frets 1 3 3 2 1 1} 
    {define Gb.             base-fret 1 frets 2 4 4 3 2 2} 
    {define A6...           base-fret 1 frets 2 x 2 2 2 0}
   
    The sequence will be 
     
         Ab                                Gb
    woh lamhay woh raatein      koi na jane thi kaise baatein
         A6                                Gb
    woo barsaatein              Woh bheeghi bheegi yaadein......
         Ab                                Gb
   na mai jano                         na tu jane 
       Ab                                 Gb
   kaisa hai yeh aalam                koi na jaane  
      Ab                                  Gb
   phir kyuin hai yeh tanhai       kaise hai yeh ruswai 
     A6                                 Gb
   gum ho gai kyuin                koh gay hai hum  oh,oh,oh,oh 
    
      Ab                                Gb
    woh lamhay woh raatein      koi na jane thi kaise baatein
         A6                                Gb
    woo barsaatein              Woh bheeghi bheegi yaadein......   

           Ab                        Gb
   saagar ki in lahroo se ,   gahra hai mera pyaar 
         Ab                          Gb
   sehrao ki in hawaao mai ,   kasie aagei bhaar 
          Ab                                  Gb
   phir kyuin hai yeh tanhai       kaise hai yeh ruswai 
     A6                                 Gb
   gum ho gai kyuin                koh gay hai hum  oh,oh,oh,oh 
    
         Ab                                Gb
    woh lamhay woh raatein      koi na jane thi kaise baatein
         A6                                Gb
    woo barsaatein              Woh bheeghi bheegi yaadein......   
         Ab                               Gb
   aahndi ho ya tufaan ho      mere maan mai rahe tu saada 
         Ab                              Gb
   koi aapna ho ya paaraya hoo  ,   use dhonde mai kaha  

     Ab                                  Gb
   phir kyuin hai yeh tanhai       kaise hai yeh ruswai 
     A6                                 Gb
   gum ho gai kyuin                koh gay hai hum  oh,oh,oh,oh 

    Ab                                Gb
    woh lamhay woh raatein      koi na jane thi kaise baatein
         A6                                Gb
    woo barsaatein              Woh bheeghi bheegi yaadein......   
           
   SO THIS THE END OF THE SONG .   
                                               CHORDS BY AHAD SHAHZAD 
                                             EMAIL:aahadshahzad@hotmail.com
Tap to rate this tab
# A B C D E F G H I J K L M N O P Q R S T U V W X Y Z