Song name
# A B C D E F G H I J K L M N O P Q R S T U V W X Y Z

Jal - Hum Kiss Gali Ja Rahien Haien tab

Help us improve GuitareTab! Take a short survey!
Hi Frndz my name Zohaib and i got some tabs for you.
Try it and tell me that how do you find it.

My id is zohaib_x2_ss@yahoo.com


well its intro of the song its not 100 percent rite but would do the job..


 [Intro]
 e|------------------------------------------------------------------------|
 B|------------------------------------------------------------------------|
 G|------------------------------------------------------------------------|
 D|----------------14--14----------14--14--14------------------------------|
 A|--------------12--12--11--1112----12--12--111112------------------------|
 E|------------------------------14----------------------------------------|





 [Verse]Hum kis gali ja rahien haien.........
 E|------------------------------------------------------------------------|
 B|------------------------------------------------------------------------|
 G|-------------------5----------------------------------------------------|
 D|-------------------5-----------------------5----------------------------|
 A|---------------3---------------------------5----------------------------|
 E|---------------------------------------3--------------------------------|

 [Verse]Hum kis gali ja rahien haien.........
 E|------------------------------------------------------------------------|
 B|------------------------------------------------------------------------|
 G|------------------------------------------------------------------------|
 D|-----------------------7---------------------5--------------------------|
 A|-----------------------7---------------------5--------------------------|
 E|-------------------5---------------------3------------------------------|

 [Verse]Apna koi thikana nahiiiiiiiiiiiiiiiiiiiiiiiiiiiiiiiiiiii...............
 E|------------------------------------------------------------------------|
 B|------------------------------------------------------------------------|
 G|-----------------------------------------------5------------------------|
 D|-------------3---------------5-----------------5------------------------|
 A|-------------3---------------5-------------3----------------------------|
 E|---------1---------------3----------------------------------------------|

 [Verse]Apna koi thikana nahiiiiiiiiiiiiiiiiiiiiiiiiiiiiiiiiiiii...............
 E|------------------------------------------------------------------------|
 B|------------------------------------------------------------------------|
 G|-----------------------------------------------5------------------------|
 D|-------------3-----------5---------------------5------------------------|
 A|-------------3-----------5-----------------3----------------------------|
 E|---------1-----------3--------------------------------------------------|

[Verse]Armano ki anjuman mai............
 E|------------------------------------------------------------------------|
 B|------------------------------------------------------------------------|
 G|-------------------5----------------------------------------------------|
 D|-------------------5-----------------------5----------------------------|
 A|---------------3---------------------------5----------------------------|
 E|---------------------------------------3--------------------------------|

 [Verse]Baisud haien apni lagan mai..............
 E|------------------------------------------------------------------------|
 B|------------------------------------------------------------------------|
 G|------------------------------------------------------------------------|
 D|-----------------------7-----------------5------------------------------|
 A|-----------------------7-----------------5------------------------------|
 E|-------------------5-----------------3----------------------------------|

 [Verse]Apna koi fassaaaaaaanaaa nahiiiiii......
 E|------------------------------------------------------------------------|
 B|------------------------------------------------------------------------|
 G|-----------------------------------------------5------------------------|
 D|-------------3-----------5---------------------5------------------------|
 A|-------------3-----------5-----------------3----------------------------|
 E|---------1-----------3--------------------------------------------------|

 [Verse]Apna koi fassaaaaaaanaaa nahiiiiii......
 E|------------------------------------------------------------------------|
 B|------------------------------------------------------------------------|
 G|-----------------------------------------------5------------------------|
 D|---------3---------------5---------------------5------------------------|
 A|---------3---------------5-----------------3----------------------------|
 E|-----1---------------3--------------------------------------------------|

These were the intro lyrics of the songs and the main part is like...........

 [Verse]Baitabiyan haien pal pal.....
E|-------------------------------------------------------------------------|
 B|------------------------------------------------------------------------|
 G|---------------5--------------------------------------------------------|
 D|---------------5-----------------------5--------------------------------|
 A|-----------3---------------------------5--------------------------------|
 E|-----------------------------------3------------------------------------|

 [Verse]Chaya yeah kaisa nasha hai.........
 E|------------------------------------------------------------------------|
 B|------------------------------------------------------------------------|
 G|------------------------------------------------------------------------|
 D|-------------------7---------------------5------------------------------|
 A|-------------------7---------------------5------------------------------|
 E|---------------5---------------------3----------------------------------|

 [Verse]Khanoshiyoun mai sadda......
E|-------------------------------------------------------------------------|
B|-------------------------------------------------------------------------|
G|----------------5--------------------------------------------------------|
D|----------------5-----------------------5--------------------------------|
A|------------3---------------------------5--------------------------------|
E|------------------------------------3------------------------------------|

 [Verse]Hooosh bhi gum shuda hai.........
E|-------------------------------------------------------------------------|
B|-------------------------------------------------------------------------|
G|-------------------------------------------------------------------------|
D|--------------------7---------------------5------------------------------|
A|--------------------7---------------------5------------------------------|
E|----------------5---------------------3----------------------------------|

 [Verse]Dar dar yeah kiyoun ghomta hai...............
E|-------------------------------------------------------------------------|
B|-------------------------------------------------------------------------|
G|----------------5--------------------------------------------------------|
D|----------------5-----------------------5--------------------------------|
A|------------3---------------------------5--------------------------------|
E|------------------------------------3------------------------------------|


 [Verse]Masti mai kiyoun jhoomta hai...............
E|-------------------------------------------------------------------------|
B|-------------------------------------------------------------------------|
G|-------------------------------------------------------------------------|
D|--------------------7---------------------5------------------------------|
A|--------------------7---------------------5------------------------------|
E|----------------5---------------------3----------------------------------|

 [Verse]Deewanai dil nai jana nahiiiiiii...........
E|-------------------------------------------------------------------------|
B|-------------------------------------------------------------------------|
G|---------------------------------------------------5---------------------|
D|-------------3---------------5---------------------5---------------------|
A|-------------3---------------5-----------------3-------------------------|
E|---------1---------------3-----------------------------------------------|

 [Verse]Deewanai dil nai jana nahiiiiiii...........
E|-------------------------------------------------------------------------|
B|-------------------------------------------------------------------------|
G|------------------------------------------------5------------------------|
D|----------3---------------5---------------------5------------------------|
A|----------3---------------5-----------------3----------------------------|
E|------1---------------3--------------------------------------------------|

and will go juzz like this.......

thanks 
zohaib
zohiab_x2_ss@yahoo.com



Compiled with TabPlayer :: http://www.simoneperandini.com/tabplayer.htm

Related for Hum Kiss Gali Ja Rahien Haien tab