Song name
# A B C D E F G H I J K L M N O P Q R S T U V W X Y Z

Jam - Heatwave tab

Help us improve GuitareTab! Take a short survey!
Highlighted       Show chord diagrams
-------------------------------------------------------------------------------
			     Heatwave - The Jam
-------------------------------------------------------------------------------
Tabbed by: Peej
Email:peter.wright78@ntlworld.com

Tuning: EADGBe

Intro

e|--------------------------------------------------------------------------
B|--------------------------------------------------------------------------
G|--------------------------------------------------------------------------
D|---5-3--------5-3-------5-3-------5-3-------5-3-------5-3-------5-3-------
A|-------555--------555-------555-------555-------555-------555-------555---
E|-3---------3----------3---------3---------3---------3---------3-----------

Riff 1

e|----------
B|----------
G|----------
D|-3-5-3----
A|-------5--
E|----------



Riff 1       Am       Bm
Whenever Im with you

            Em
Something inside 

       Am      Bm
starts burning

       Em
And my hearts filled with fire

Am                     Bm
Stop this - its got a hold on me

       C                         D
I said this aint the way its supposed to be 



            G (Bass plays Riff 1)
Its like a heatwave burning in my heart
I cant keep from crying
Tearing me apart


Riff 1       Am            Bm    
Whenever she calls my name
          Em
Sounds so soft sweet and plain
      Am          Bm
Right there, right then

  Em
I feel this burning pain

     Am                          Bm
This high blood pressures got a hold on me

       C                           D
I said this aint the way loves supposed to be



            G (Bass plays Riff 1)
Its like a heatwave burning in my heart
I cant keep from crying
Tearing me apart

N.C.
(Bass-Riff 1)   Am
yeah yeah, yeah yeah (oh Yeah)

   Bm
oh yeah (oh Yeah)

Em
ooooh yeah

   Am
oh yeah (oh Yeah)

   Bm
oh yeah (oh Yeah)

Em
ooooh

     Am                          Bm
This high blood pressures got a hold on me

       C                           D
I said this aint the way loves supposed to be

            G (Bass plays Riff 1)
Its like a heatwave burning in my heart
I cant keep from crying
Tearing me apart


Solo (Behind the solo play the same as the verse and chorus)


Riff 1       Am       Bm
Whenever Im with you

            Em
Something inside 

       Am      Bm
starts burning

       Em
And my hearts filled with fire

Am              Bm
Somethings got me amazed 
      C
Dont know what to do 
   D
My heads in a haze 

            G (Bass plays Riff 1)
Its like a heatwave burning in my heart
I cant keep from crying
Tearing me apart

N.C.
(Bass-Riff 1)   Am 
yeah yeah, yeah yeah (oh Yeah)

   Bm
oh yeah (oh Yeah)

Em
ooooh yeah

   Am
oh yeah (oh Yeah)

   Bm
oh yeah (oh Yeah)

Em
ooooh

     Am                          Bm
This high blood pressures got a hold on me 

       C                           D
I said this aint the way loves supposed to be

            G        (End on G)
Its like a heatwave


Chords Used

Am: 577555
Bm: 799777
Em: x79987 
C: 8-10-10-9-8-8 
D: 10-12-12-11-10-10 
G: 355433
Related for Heatwave tab