Song name
# A B C D E F G H I J K L M N O P Q R S T U V W X Y Z

Jam - David Watts tab

E-------------------|
B-------------------|
G-------------------| X6
D-7-7-7-9-7-10-9-7--|
A-5-5-5-5-5-5--5-5--|
E-------------------|

E-------------------|
B-------------------|
G-------------------|  Do this until the verse ends
D-7-7-7-7-7-7-7-7-7-|
A-5-5-5-5-5-5-5-5-5-|
E-------------------|
..and i wish i could have all he has got
E--------------------|
B--------------------|
G--------------------|
D--------------------|
A-5-5-5-5-5--7--5--7-|
E-3-3-3-3-3--5--3--5-|
Tap to rate this tab
 
# A B C D E F G H I J K L M N O P Q R S T U V W X Y Z