Song name
# A B C D E F G H I J K L M N O P Q R S T U V W X Y Z

Jam - Music For The Last Couple tab

Really need some help with this one, I'm not much of a tabber so please just inbox me
your suggestions.
 I've been after this song since I started to learn guitar 2 years ago and thought old
make a crack at it seeing as there were no tabs on the web ANYWHERE!!

Tuning: Standard


Riff one

e-161616-14-12-9---------------------------------------|
B------------------------------------------------------|
G------------------------------------------------------|
D------------------------------------------------------|
A------------------------------------------------------|
E------------------------------------------------------|

Riff two

E------------------------------------------------------|
B------------------------------------------------------|
G------------------------------------------------------|
D---------------4----------------------------4---------|
A------000-4-5------7--4-----------000-4-5------7------|
E---0---------------------------0----------------------|

Riff three

E----------------------------------|
B----------------------------------|
G----------------------------------|
D------777-----------------4-------|
A-------------0--4-5---7-----------|
E---0------------------------------|


Now here's where I kind of loose things a little.

Riff 4
The ska like chords played with all the echo and so on. barre B and A.

e--7--7--7--7--7--7--7--7-|
B--7--7--7--7--7--7--7--7-|
G--8--8--8--8--8--8--8--8-|
D--9--9--9--9--9--9--9--9-|
A--9--9--9--9--9--9--9--9-|
E--7--7--7--7--7--7--7--7-|

e--5--5--5--5--5--5--5--5-|
B--5--5--5--5--5--5--5--5-|
G--6--6--6--6--6--6--6--6-|
D--7--7--7--7--7--7--7--7-|
A--7--7--7--7--7--7--7--7-|
E--5--5--5--5--5--5--5--5-|

After this there is a solo part which goes under the bass. Can't work this one out so
any suggestions I can work with would be great.

Then it goes back to riffs one two and three.

When riff three is played the guitar is dubbed over playing

E----------------------------------|
B----------------------------------|
G----------------------------------|
D--------------4-------------------|
A------2-4-5-7----7-5-4-2----(0-0)-|
E----------------------------------|
(P.M)

Then it's the solo part again.

Riffs one and two.

End on

e-----------------------------|
B-----------------------------|
G-----------------------------|
D----77----77----77----77-----|
A-----------------------------|
E-----------------------------|


All help is much appreciated. Rate and so on, thanks guys.


Tabbed by Jimmi
Tap to rate this tab
# A B C D E F G H I J K L M N O P Q R S T U V W X Y Z