Song name
# A B C D E F G H I J K L M N O P Q R S T U V W X Y Z

Jam - Thats Entertainment Acoustic tab

Not a bad or difficult song to play on acoustic.

(Capo on 3rd fret)

Chords - verse
e|-3------------------3------------------------------------|
B|-3------------------3------------------------------------|
G|-0------(Keep)------0------(Keep)------------------------|
D|-0----(Struming)----2----(Struming)----------------------|
A|-2------------------2------------------------------------|
E|-3------------------0------------------------------------| ...reapeat
   A police car and a screaming siren, Pneumatic drill and ripped up 
   conncrete...

Strum chords in time with the tune...

Stop, then change to these chords quickly...
Chords - chorus
e|--------1------------0--------|
B|--------2------------1--------|
G|(pause)-3---(Keep)---1(Strum)-|
D|--------3-(Struming)-2--------|
A|--------0------------0--------|
E|--------0------------0--------| ...repeat
...I said that's..entertainment

If you know how the song goes, you'll know how to work the rest of the song out...
Tap to rate this tab
# A B C D E F G H I J K L M N O P Q R S T U V W X Y Z