Song name
# A B C D E F G H I J K L M N O P Q R S T U V W X Y Z

Jam - The Bitterest Pill tab

This is 100% correct so enjoy!!!
This is my first tab so hopefully there will be more to come!

E|-------------------------------0-----------------------|
B|--10-------10--8------8--7--------3-3h5-3h5-3h5-3h5----|
G|-----11----------9---------8--2------------------------| x2
D|--------12---------10----------------------------------|
A|-------------------------------------------------------|
E|-------------------------------------------------------|


Outro
E|-8-----------7----------5--------7--------9----------10--|
B|-8-----------7-------------------------------------------|
G|-9-----------7-----4h6------6h7------7h9--------9h11-----|
D|-10----------9-------------------------------------------|
A|---------------------------------------------------------|
E|---------------------------------------------------------|

E|---------12----------14----------16----------18--|
B|-------------------------------------------------|
G|--11h12-------12h14-------14h16-------16h18------| x2
D|-------------------------------------------------|
A|-------------------------------------------------|
E|-------------------------------------------------|
Tap to rate this tab
# A B C D E F G H I J K L M N O P Q R S T U V W X Y Z