Jamaica - Cross The Fader tab

Artist: Jamaica
Album: No Problem
Song: Cross The Fader

http://www.myspace.com/ithinkilikejamaica

Tuning: Standard (EADGBe)

Tabbed by Samuelblitz

A quick note before I begin, this song has a really weird song structure, so i might
made a mistake but i'm pretty sure i've got everything down.  Also the chords that are
during the verse have a difficult timing.  Instead of being played over certain words, 
are played in between words.  You'll have to listen to the song a few times to understand
i mean.

CHORD TABS:

     G    Eb  Bb   C7   Bb7   A7   Em    F7

e|---3----6----6----3----6----5-----7----8---------------------------------|
B|---3----8----6----5----6----5-----8----10--------------------------------|
G|---4----8----7----3----7----6-----9----8---------------------------------|
D|---5----8----8----5----6----5-----9----10--------------------------------|
A|---5----6----8----3----8----7-----7----8---------------------------------|
E|---3----x----6----x----6----5-----x----x---------------------------------|

INTRO:

             G              G             Eb             Bb

e|-----------3--------------3--------------6--------------6-----------|
B|-----------3--------------3--------------8--------------6-----------|
G|-----------4--------------4--------------8--------------7-----------|
D|-----------5--------------5--------------8--------------8-----------|
A|-----------5--------------5--------------6--------------8-----------|
E|-1-3-3-3---3---1--3-3-3---3---1--3-3-3---x---1--3-3-3---6-----------|

 X  4


BRIDGE:

G   ...    C7  ...   Eb

then...

               G              Bb    C7  C7

e|-------------3--------------6-------3-3------------------------------|
B|-------------3--------------6-------5-5------------------------------|
G|-------------4--------------7-------3-3------------------------------|
D|-------------5--------------8-------5-5------------------------------|
A|-------------5--------------8-------3-3------------------------------|
E|--1--3-3-3---3---1--3-3-3---6-------x-x------------------------------|

VERSE:

G      Bb    G   A7      G7              Em          Eb            C7

  Don't   He---si---tate,   she's just a girl trying to give you a hand.

G    Bb     G     A7     G7             Em                   Eb

  Job   all   day   long.  She's just a girl,  why don't you call her on

           C7
the phone?

Repeat Chords for:

Cause you're a man.  Just a man indeed.  Don't try to fly your needs. Ain't got the
the clock is ticking gotta hurry to make a scene.

INTRO:

Plays X 2
But take note, the first time it plays, it skips the first 4 notes and G Chord so it 
like this:

                G             Eb             Bb

e|--------------3--------------6--------------6-----------|
B|--------------3--------------8--------------6-----------|
G|--------------4--------------8--------------7-----------|
D|--------------5--------------8--------------8-----------|
A|--------------5--------------6--------------8-----------|
E|---1--3-3-3---3---1--3-3-3---x---1--3-3-3---6-----------|

             G              G             Eb             Bb

e|-----------3--------------3--------------6--------------6-----------|
B|-----------3--------------3--------------8--------------6-----------|
G|-----------4--------------4--------------8--------------7-----------|
D|-----------5--------------5--------------8--------------8-----------|
A|-----------5--------------5--------------6--------------8-----------|
E|-1-3-3-3---3---1--3-3-3---3---1--3-3-3---x---1--3-3-3---6-----------|


VERSE:

G      Bb    G   A7      G7              Em          Eb            C7

  Don't   He---si---tate,   she's just a girl trying to give you a hand.

G    Bb     G     A7     G7             Em                   Eb

  Job   all   day   long.  She's just a girl,  why don't you call her on

           C7
the phone?

Repeat Chords for:

Cause you're a man.  Just a man indeed.  Don't try to fly your needs. Ain't got the
the clock is ticking gotta hurry to make a scene.

CHORUS:


G                            Bb7                        A7

Studio, in a studio, she's a liar in a miniskirt.  Please cross the fader.

X 3

G                         Bb7               Bb7,Bb7

Studio, in a studio, It's about to come out,       because she's on me.

BRIDGE #2:

F7 ... Em ... Eb ...... C7

VERSE VARIATION:
                                                             C7

Don't Hesitate, she's just a girl trying to give you a hand.

Job all day long.  She's just a girl, why don't you call her on

           C7

the phone?


Normal Verse Chord Progression (G,Bb,G,A7,G7,Em,Eb,C7) for:

Cause you're a man.  Just a man indeed.  Don't try to fly your needs. Ain't got the
the clock is ticking gotta hurry to make a scene.

CHORUS:


G                            Bb7                        A7

Studio, in a studio, she's a liar in a miniskirt.  Please cross the fader.

X 3

G                         Bb7               Bb7,Bb7

Studio, in a studio, It's about to come out,       because she's on me.


INTRO:

             G              G             Eb             Bb

e|-----------3--------------3--------------6--------------6-----------|
B|-----------3--------------3--------------8--------------6-----------|
G|-----------4--------------4--------------8--------------7-----------|
D|-----------5--------------5--------------8--------------8-----------|
A|-----------5--------------5--------------6--------------8-----------|
E|-1-3-3-3---3---1--3-3-3---3---1--3-3-3---x---1--3-3-3---6-----------|

 X  2

After the intro plays twice, it is interrupted by the solo.


SOLO:

(Over chords:  G ... Bb ... G ... G ... C7,C7)

e|--11-10-11-10-11-10-11-10-------------11-10-11-10-11-10-11-10-11-10-11-10-|
B|---------------------------11-8-11-8--------------------------------------|
G|--------------------------------------------------------------------------|
D|--------------------------------------------------------------------------|
A|--------------------------------------------------------------------------|
E|--------------------------------------------------------------------------|

e|--------------------------------------------------------------------------|
B|---11-8-11-8--------------------------------------------------------------|
G|--------------------------------------------------------------------------|
D|--------------------------------------------------------------------------|
A|--------------------------------------------------------------------------|
E|--------------------------------------------------------------------------|

End.
Tap to rate this tab
 
# A B C D E F G H I J K L M N O P Q R S T U V W X Y Z