Song name
# A B C D E F G H I J K L M N O P Q R S T U V W X Y Z

Jamaica - I Think I Like U2 tab

Check out the tune by listening to the original
The solo part will come soon...

Riff
  C     Eb°   Fm
E-3-3---5-5---4-4-|
B-5-5---7-7---6-6-|
G-5-5---8-8---5-5-|
D-----------------|
A-----------------|
E-----------------|

Chorus
  Eb   Bb   Gm   F
E------6-6--3-3--1-1-------|
B------6-6--3-3--1-1-------|
G-8-8--7-7--3-3--2-2-------|
D-8-8--8-8--5-5--3-3-------|
A-6-6--8-8--5-5--3-3-------|
E------6-6--3-5--1-1-------|
Tap to rate this tab
 
# A B C D E F G H I J K L M N O P Q R S T U V W X Y Z