Song name
# A B C D E F G H I J K L M N O P Q R S T U V W X Y Z

Jamal - Peron tab

Drop D [DADGHE]
 
(0:00-1:02 "Rzucamy sciana o groch..."):
e|-----------------------|----------------------------|
H|-----------------------|----------------------------|
G|-----------------------|----------------------------|
D|-----------------------|----------------------------|
A|--------3--5h7---------|------7----------5----------|
D|--0--3----------x------|--7-------x--5-------x------|
 
 
Exception: "Widzialem dzisiaj twoj glos,
         Nie ma nikogo jak ty"
 
e|-----------------------|----------------------------|
H|-----------------------|----------------------------|
G|-----------------------|----------------------------|
D|-----------------------|----------------------------|
A|--------3--5h7---------|------7-------------10------|
D|--0--3----------x------|--7-------x--7h10-------x---|
 

 
 
(1:03-1:47 "Zostan, potrzebuje cie tu...")
e|----------------------------------------------|
H|----------------------------------------------|
G|----------------------------------------------|
D|--3-3-3-3-0-0-0-0-0-0-7-7-7-7-5-5-5-5-5-5-0---|
A|--3-3-3-3-0-0-0-0-0-0-7-7-7-7-5-5-5-5-5-5-0---|
D|--3-3-3-3-0-0-0-0-0-0-7-7-7-7-5-5-5-5-5-5-0---|
 
e|----------------------------------------------|
H|----------------------------------------------|
G|----------------------------------------------|
D|--3-3-3-3-0-0-0-0-0-0-7-7-7-7-7-7-7-5-5-5-0---|
A|--3-3-3-3-0-0-0-0-0-0-7-7-7-7-7-7-7-5-5-5-0---|
D|--3-3-3-3-0-0-0-0-0-0-7-7-7-7-7-7-7-5-5-5-0---|
 
 
(1:48-2:02 "Biegne do ciebie...")
e|----------------------------------------------|
H|----------------------------------------------|
G|----------------------------------------------|
D|--3-3-3-x-0-0-x-0-0-x-7-7-7-x-5-5-x-5-5-x-0---|
A|--3-3-3-x-0-0-x-0-0-x-7-7-7-x-5-5-x-5-5-x-0---|
D|--3-3-3-x-0-0-x-0-0-x-7-7-7-x-5-5-x-5-5-x-0---|
 
e|----------------------------------------------|
H|----------------------------------------------|
G|----------------------------------------------|
D|--3-3-3-x-0-0-x-0-0-x-7-7-7-x-7-7-x-5-5-x-0---|
A|--3-3-3-x-0-0-x-0-0-x-7-7-7-x-7-7-x-5-5-x-0---|
D|--3-3-3-x-0-0-x-0-0-x-7-7-7-x-7-7-x-5-5-x-0---|
 
 
(2:03-2:46 "Zostan, potrzebuje cie tu...")
e|----------------------------------------------|
H|----------------------------------------------|
G|----------------------------------------------|
D|--3-3-3-3-0-0-0-0-0-5/7-7-7-7-5-5-5-5-5-5-0---|
A|--3-3-3-3-0-0-0-0-0-5/7-7-7-7-5-5-5-5-5-5-0---|
D|--3-3-3-3-0-0-0-0-0-5/7-7-7-7-5-5-5-5-5-5-0---|
 
e|----------------------------------------------|
H|----------------------------------------------|
G|----------------------------------------------|
D|--3-3-3-3-0-0-0-0-0-5/7-7-7-7-7-7-7-5-5-5-0---|
A|--3-3-3-3-0-0-0-0-0-5/7-7-7-7-7-7-7-5-5-5-0---|
D|--3-3-3-3-0-0-0-0-0-5/7-7-7-7-7-7-7-5-5-5-0---|
Tap to rate this tab
# A B C D E F G H I J K L M N O P Q R S T U V W X Y Z