Song name
# A B C D E F G H I J K L M N O P Q R S T U V W X Y Z

Jamd - Ode To My Luver tab

J.A.M.D., Ode to my LUVer.
 Tabbed by Big A, thome_t25@yahoo.com.
  
-0-0-0-0-0-0-0--0-0-0-0-0-0-0--0-0-0-0-0-0-0----------
-0-0-0-0-0-0-0--9-9-9-9-9-9-9--0-0-0-0-0-0-0----------
-8-8-8-8-8-8-8--9-9-9-9-9-9-9--4-4-4-4-4-4-4----------
-9-9-9-9-9-9-9--0-0-0-0-0-0-0--5-5-5-5-5-5-5----------
-9-9-9-9-9-9-9--0-0-0-0-0-0-0--5-5-5-5-5-5-5----------
-0-0-0-0-0-0-0--0-0-0-0-0-0-0--0-0-0-0-0-0-0----------

-0-0-0-0-0-0-0----------------------------------------
-0-0-0-0-0-0-0----------------------------------------
-6-6-6-6-6-6-6----------------------------------------
-7-7-7-7-7-7-7----------------------------------------
-7-7-7-7-7-7-7----------------------------------------
-0-0-0-0-0-0-0----------------------------------------

That's the whole thing, listen to find out how to play it. 
And J.A.M.D. is a huge band in Ohio, but I don't know 
if they're known elsewhere but the song is pretty phat. 

:: Ultimate Guitar Archive :: 
http://www.ultimate-guitar.com 



Tap to rate this tab
# A B C D E F G H I J K L M N O P Q R S T U V W X Y Z