Song name
# A B C D E F G H I J K L M N O P Q R S T U V W X Y Z

Jamd - Strait Out tab

J.A.M.D., Strait Out (Ohio).
Tabbed by Big A, thome_t25@yahoo.com.
  
Intro/Outro (Bass but sounds ok using bottom 4 guitar strings)
------------------------------------------------------
------------------------------------------------------
------------------------5-----------------------------
-4-4-4-4-5-4-4-4-5-4-4-4-5-4~-------Repeat 3X---------

Bass Verse

-7-7-8-7-5--------------------------------------------
------------------------------------------------------
------------------------------------------------------
----------------------------Play Between Guitar Repeat

Intro/Outro                                           
------------------------------------------------------
------------------------------------------------------
------------------------------------------------------
------------------------------------------------------
-3-3-3-3-3-3-3-2-2-2-2-2-2-2--------------------------
-1-1-1-1-1-1-1-0-0-0-0-0-0-0-Play until Bass is done--



Verse (Palm Muted)

------------------------------------------------------
------------------------------------------------------
------------------------------------------------------
---------------2-2-2-2-2-2-2---------------2~---------
-2-2-2-2-2-2-2-2-2-2-2-2-2-2-2-2-2-2-2-2-2-2~---------
-2-2-2-2-2-2-2---------------2-2-2-2-2-2-2------------


(Order)
Intro
Verse
Chorus
Verse
Chorus
Verse
Chorus
Outro

:: Ultimate Guitar Archive :: 
http://www.ultimate-guitar.com
Tap to rate this tab
# A B C D E F G H I J K L M N O P Q R S T U V W X Y Z