Song name
# A B C D E F G H I J K L M N O P Q R S T U V W X Y Z

Jamd - Alexs Anthem tab

J.A.M.D., Alex's Anthem.
Tabbed by Joel Simpson, eminem411@go.com.
  
Intro/Verse
-----------------------------------------------------
-----------------------------------------------------
-------2---------------------------------------------
------2---2-----3-------1----------------------------
-----0---------3---3-3-3-----------------------------
--------------2-------------------Repeat a bunch of times



Chorus/Outro

------------------------------------------------------
------------------------------------------------------
-5-5-5-5-5-5-5-5-4-4-4-4-4-4-4-4-5-5-5-5-5-5-5-5------
-5-5-5-5-5-5-5-5-4-4-4-4-4-4-4-4-5-5-5-5-5-5-5-5------
-3-3-3-3-3-3-3-3-2-2-2-2-2-2-2-2-3-3-3-3-3-3-3-3------
------------------------------------------------------



Chorus Cont.         (outro only)

-------------------/----------------------------------
-------------------/----------------------------------
-2-2-2-2-2-2-2-2---/~~~~~~-2--------------------------
-2-2-2-2-2-2-2-2---/~~~~~~-2--------------------------
-0-0-0-0-0-0-0-0---/~~~~~~-0--------------------------
-------------------/---------------------------------- 

:: Ultimate Guitar Archive :: 
http://www.ultimate-guitar.com 



Tap to rate this tab
# A B C D E F G H I J K L M N O P Q R S T U V W X Y Z