Song name
# A B C D E F G H I J K L M N O P Q R S T U V W X Y Z

James A Johnston - Deadman Youre Gonna Pay tab

I haven't figured out solos but I did the intro/verse and the chorus while messing about riffing.
Couldn't find the tabs anywhere so wanted to share this in case anyone else wanted to know.

|----------------|--------------------------------|
|----------------|--------------------------------|
|----------------|--------------------------------|
|----------------|9/11-11---4/7-7-2~~~------------|
|----------------|9/11-11---4/7-7-2~~~------------|
|----------------|7/9--9----2/5-5-0~~~------------|
    Drums x2              Verse x lots

|------------------------------------------------------------|
|------------------------------------------------------------|
|------------------------------------------------------------|
|9/11-11-11-9/11-11-11-9/11-11-11-7---2----------------------|
|9/11-11-11-9/11-11-11-9/11-11-11-7---2----------------------|
|7/9--9--9--7/9--9--9-7/9--9--9--5---0-----------------------|
                             Chorus x4
Tap to rate this tab
# A B C D E F G H I J K L M N O P Q R S T U V W X Y Z