Song name
# A B C D E F G H I J K L M N O P Q R S T U V W X Y Z

James A Johnston - Stone Cold Steve Austin tab

-------------------------------------------------------------------------------
			     Stone Cold Steve Austin-WWF - James .A. Johnston
-------------------------------------------------------------------------------
Tabbed by: Dru.

            Intro:(glass breaking)
Guitar 1:
e|---------------7---------------------------7/h/8-7/p/0-----------12--------|
B|-----------------------------0---------------------------------------------|
G|---------------------------------------------------------------------------|
D|---------------------------------------------------------------------------|
A|---------------------------------------------------------------------------|
E|---00--01--00----00--01--00----00--01--00----------------00--01-----00-----|
(glass breaking)
e|---------------------------------------------------------------------------|
B|---------------------------------------------------------------------------|
G|---------------------------------------------------------------------------|
D|---------------------------------------------------------------------------|
A|---------------------------------------------------------------------------|
E|---00--01--00-1--2-00--01--00-1-2--00--01--00-1-2-00--01--00-1-2-----------|
Guitar 2:
e|---3---3---3---3---3---3---3---3---3---3---3---3---3---3---3---3-----------|
B|---------------------------------------------------------------------------|
G|---------------------------------------------------------------------------|
D|---------------------------------------------------------------------------|
A|---------------------------------------------------------------------------|
E|---------------------------------------------------------------------------|
(glass breaking)
e|---5---5---5---5---5---5---5---5---5---5---5---5---5---5---5---5-----------|
B|---8---8---8---8---8---8---8---8---8---8---8---8---8---8---8---8-----------|
G|---------------------------------------------------------------------------|
D|---------------------------------------------------------------------------|
A|---------------------------------------------------------------------------|
E|---------------------------------------------------------------------------|
Guitar 1:
e|---------------------------------------------------------------------------|
B|---------------------------------------------------------------------------|
G|---------------------------------------------------------------------------|
D|---------------------------------------------------------------------------|
A|---------------------------------------------------------------------------|
E|---00--01--00-1--2-00--01--00-1-2--00--01--00-1-2-00--01--00-1-2-----------|
(glass breaking)
e|---------------------------------------------------------------------------|
B|---------------------------------------------------------------------------|
G|---------------------------------------------------------------------------|
D|---------------------------------------------------------------------------|
A|---------------------------------------------------------------------------|
E|06-06-06-06-6-6/7-06-06-06-06/p/0-7-6-06-06-06-06-6-6/7-06-06-06-06/p/0-7-6|
(glass breaking)
Guitar 2:
e|06-06-06-06-6-6/7-06-06-06-06/p/0-7-6-06-06-06-06-6-6/7-06-06-06-06/p/0-7-6|
B|---------------------------------------------------------------------------|
G|---------------------------------------------------------------------------|
D|---------------------------------------------------------------------------|
A|---------------------------------------------------------------------------|
E|---------------------------------------------------------------------------|
Guitar 1:
e|---------------------------------------------------------------------------|
B|---------------------------------------------------------------------------|
G|---------------------------------------------------------------------------|
D|---------------------------------------------------------------------------|
A|---------------------------------------------------------------------------|
E|06-06-06-06-6-6/7-06-06-06-06/p/0-7-6-06-06-06-06-6-6/7-06-06-06-06/p/0-7-6|
(glass breaking)
Guitar 2:
e|---3*--3*--3*--5*/p/3*--3*--3*--3*--5*/p/3*--------------------------------|
B|---------------------------------------------------------------------------|
G|---------------------------------------------------------------------------|
D|---------------------------------------------------------------------------|
A|---------------------------------------------------------------------------|
E|---------------------------------------------------------------------------|
(repeat twice)
==================
       KEY
==================
| /  slide up
| \  slide down
|/h/  hammer-on
|/p/  pull-off
| ~  vibrato
| *  harmonic
| x  Mute note
===============================================================================
Tap to rate this tab
 
# A B C D E F G H I J K L M N O P Q R S T U V W X Y Z