Song name
# A B C D E F G H I J K L M N O P Q R S T U V W X Y Z

James Arthur - Roses tab

I've only found 1 tab for this online and it's been copied onto every tab site which is
annoying when every site has the same wrong tab! This time was the final straw so I've
decided to post the CORRECT tablature! (You're Welcome). That was in jest, in all 
seriousness, thank you for finding my tab, feel free to post elsewhere but you have to credit my
username (Adderley).

Here We GO!

You can use whatever capo you want to suit your range or the range of the vocalist. If
you just want to play along with the track that is perfectly understandable and the
recording standard tuning with:
CAPO 4

INTRO

            C                      G                        Em                   Dadd4
e|-------------------------------------------------------------------------------------------|
B|----3----3-----0---------3------3--------3-------3-------3------0---------3----------------|
G|------0----0----------------0------0----------------0-------0---------------0---2-2h4h2-0--|
D|-------------------------------------------------------------------------------------------|
A|-3-----3-----3-----------------------------------------------------------------------------|
E|----------------------3--------3------3--------0------0-------3---------2-----2------------|


            C                      G                          Em                   Dadd4
e|---------------------------------------------------------------------------0----------------|
B|----3----3-----0---------3------3--------3-------3-------3------0----------------3-------0--|
G|------0----0----------------0------0----------------0-------0---------------2-------0-------|
D|--------------------------------------------------------------------------------------------|
A|-3-----3-----3------------------------------------------------------------------------------|
E|----------------------3--------3------3--------0------0-------3---------2-----2--------3----|

----PLAY THIS THROUGH THE VERSES AND CHORUS-----


[Verse:]
I could've chose anybody but I chose you
Ooh ooh
Help me get better, you pull me right out of the blue
Oh oh
And daddy don't like you, but daddy and I never speak
Ee ee
Every night when I wake up I need you to get back to sleep
Ee ee

[Chorus:]
Smells like roses to me
Two young lovers at sea
Tastes so bitter, so sweet
You're my bang, together we go bang bang bang
Bang bang bang
Bang bang bang
Oh oh, oh oh

[Verse:]
You could've chose anybody but you chose me
Ee Ee
Hiding in bedsits cause no one around us agrees
Ee ees
And I feel romantic cause since morning I've been at the wine
I, I
Shall we eat all the poison and leave all the questions behind
I, I

[Chorus:]
Smells like roses to me
Two young lovers at sea
Tastes so bitter, so sweet
You're my bang, together we go bang bang bang
Bang bang bang
Bang bang bang

Here is Changes Up! ---REMEMBER THE CHORDS FROM ABOVE---

[Bridge:]

                  C                                G                                   Em
And all the chemicals and alcohol make for a volatile love

                    Dadd4
But stay with me


Just stay with me

         C                                       G
                       Em
And I never wanna lose you but I feel that this closeness will tear us apart

                       Dadd4
But stay with me

                    C             G
Stay with me

Em                      Dadd4
Bang, bang, bang

C                         G
Bang, bang, bang
Em                      Dadd9
Bang, bang, bang
C                         G      Em      Dadd9
Bang, bang, bang

-and back to plucking again, or you could strum it just like the bridge to imitate the
big sting orchestra that's drowning you out-

[Chorus:]
Smells like roses to me
Two young lovers at sea
Tastes so bitter, so sweet
You're my bang, together we go bang bang bang




Thank-you for reading my tab, it should be 100% correct. If the lyrics are off blame my brother!

-Adderley-
Tap to rate this tab
# A B C D E F G H I J K L M N O P Q R S T U V W X Y Z