Song name
# A B C D E F G H I J K L M N O P Q R S T U V W X Y Z

James Blake - Limit To Your Love chords

These are the chords you play. I'll let you figure out the strumming.
Email me if you have any questions etc brybutlerrr@gmail.com

~

James Blake
Limit to your love
Standard


(strike these chords)
x--------------------------------|
x--------------------------------|
x--------------------------------|
x-0--2--------2--------2---------|
x-0--2--------3--------0---------|
x--------------------------------|        x4

There's a limit to your love
like a waterfall in slow motion
like a map with no ocean
there's a limit to your love

(strum these chords)
x--------------------------------|
x--------------------------------|
x--------------------------------|
x--2--------o--------2-----------|
x--2--------o--------3-----------|
x--o--------2--------o-----------|

There's a limit to your care
so carelessly there
is it truth or dare?
There's a limit to your care
Tap to rate this tab
# A B C D E F G H I J K L M N O P Q R S T U V W X Y Z